Torn
(intro:)

Guitar1: F four times 
Guitar2:

E|----8----|----------|----------|---------|
B|---------|----11----|----10----|----8----|
G|---------|----------|----------|---------|
D|---------|----------|----------|---------|
A|---------|----------|----------|---------|
E|---------|----------|----------|---------|

(Verse 1:)

 F                                      Am
  I thought I saw a man brought to life
                                          Bb
  He was warm, he came around like he was dignified
      
  He showed me what it was to cry

F                                       Am
  Well you couldn't be that man I adored
                   
  You don't seem to know 
                               Bb
  Don't seem to care what your heart is for 

  But I don't know him anymore 

(Pre Chorus:)

          Dm
  There's nothing where he used to lie 
C 
  My conversation has run dry 
Am
  That's what's going on 
C                       
  Nothing's fine
        F 
  I'm torn

(guitar2:)

"theres nothing..." "My conversation" "Thats what..."  "Nothing's fine."

E|------------------|----------------|----------------|----------------|
B|--------------10--|-----------8----|---------5------|-----------8----|
G|----------10------|--------9-------|------5---------|--------9-------|
D|------12----------|------10--------|-----7----------|------10--------|
A|--12--------------|--10------------|--7-------------|--10------------|
E|------------------|----------------|----------------|----------------|

(Chorus:)

F                    C               Dm
 I'm all out of faith, this is how I feel
                   Bb                         F
 I'm cold and I am shamed, lying naked on the floor 
                   C                    Dm
 Illusion never changed, into something real 
                    Bb                            F
 I'm wide awake and I can see, the perfect sky is torn
                 C                   Dm  (C)  Bb
 You're a little late, I'm already torn 

(Verse 2:)

 F                                      Am
  So I guess the fortune teller's right
                                                      Bb
  I should have seen just what was there and not some holy light
 
  But you crawl beneath my veins and now
  
(pre chorus:)

  I don't care, I have no luck
  I don't miss it all that much 
  There's just so many things
  That I can't touch
  I'm torn

(Chorus)

(Bridge:)

    Dm  (C)  Bb       Dm            F         C
  Torn...             Ooooh...  Hoo ooooh...  Ooooh

(Pre Chorus 3:)

  There's nothing where he used to lie
  My inspiration has run dry
  That's what's going on
  Nothing's right
  I'm torn

(Chorus:)

F                     C               Dm
  I'm all out of faith, this is how I feel
                    Bb                         F
  I'm cold and I am shamed, lying naked on the floor 
                 C                       Dm
  Illusion never changed, into something real 
                     Bb                            F
  I'm wide awake and I can see, the perfect sky is torn
                      C               Dm    
  I'm all out of faith, this is how I feel
                    Bb                              F
  I'm cold and I am shamed, bound and broken on the floor
                      C             Dm  (C)  Bb
  You're a little late, I'm already torn 


(Outro/Solo:)

  Dm   C
  Torn...  

(guitar2:)

E|---------|-10-\-5~-|---------|-10-\-5~-|
B|-6-/-13~-|---------|-6-/-13~-|---------|
G|---------|---------|---------|---------|
D|---------|---------|---------|---------|
A|---------|---------|---------|---------|
E|---------|---------|---------|---------| 

E|---------|-10/13\10~\5~-|---------|-10-\-5~-|
B|-6-/-13~-|--------------|-6-/-13~-|---------|
G|---------|--------------|---------|---------|
D|---------|--------------|---------|---------|
A|---------|--------------|---------|---------|
E|---------|--------------|---------|---------|

Beoordeel deze tab: Natalie Imbruglia - Torn


Comments: Natalie Imbruglia - Torn - chords

5

Plaats bericht(je) voor Natalie Imbruglia - Torn

Via onderstaande formulier kan je een comment plaatsen bij de chords van Natalie Imbruglia met Torn.

Leave a Comment