• Streaming gitaar liedjes spelen
  • Leer gitaar spelen & gitaarlessen
  • 80.000 leden
Blackbox revelation
Kill for peace (and peace will die)

INTRO:
------
e|--------------------------------------------------------------------------------|
B|--------------------------------------------------------------------------------|
G|-------7-----------9b-9-7-------------------------------------------------------|
D|---9-------9--9-9-----------5--5-7----------------------------------------------|
A|---9-------9--9-9-----------5--5-7----------------------------------------------|
E|---7-------7--7-7-----------3--3-5----------------------------------------------|  x2

VERSE 1:
-------
e|--------------------------------------------------------------------------------|
B|--------------------------------------------------------------------------------|
G|--------------------------------------------------------------------------------|
D|---9-9-9-9-9-9-9-9-9-9-9-9-9-9-9-9--5-5-5-5-5-5-5-5--7-7-7-7-7-7-7-7------------|             
A|---9-9-9-9-9-9-9-9-9-9-9-9-9-9-9-9--5-5-5-5-5-5-5-5--7-7-7-7-7-7-7-7------------|
E|---7-7-7-7-7-7-7-7-7-7-7-7-7-7-7-7--3-3-3-3-3-3-3-3--5-5-5-5-5-5-5-5------------|  x2

VERSE 2:
--------
e|--------------------------------------------------------------------------------|
B|--------------------------------------------------------------------------------|
G|-------7-----------9b-9-7-------------------------------------------------------|
D|---9-------9--9-9-----------5--5-7----------------------------------------------|
A|---9-------9--9-9-----------5--5-7----------------------------------------------|
E|---7-------7--7-7-----------3--3-5----------------------------------------------|  x2

VERSE 3:
-------
e|--------------------------------------------------------------------------------|
B|--------------------------------------------------------------------------------|
G|--------------------------------------------------------------------------------|
D|---9-9-9-9-9-9-9-9-9-9-9-9-9-9-9-9--5-5-5-5-5-5-5-5--7-7-7-7-7-7-7-7------------|             
A|---9-9-9-9-9-9-9-9-9-9-9-9-9-9-9-9--5-5-5-5-5-5-5-5--7-7-7-7-7-7-7-7------------|
E|---7-7-7-7-7-7-7-7-7-7-7-7-7-7-7-7--3-3-3-3-3-3-3-3--5-5-5-5-5-5-5-5------------|  x2

CHORUS 1: 
-------
e|--------------------------------------------------------------------------------|
B|--------------------------------------------------------------------------------|
G|--------------------------------------------------------------------------------|
D|---9-9-9-9-9-9-9-9--2-2-2-2-2-2-2-2--5-5-5-5-5-5-5-5--7-7-7-7-7-7-7-7-----------|             
A|---9-9-9-9-9-9-9-9--2-2-2-2-2-2-2-2--5-5-5-5-5-5-5-5--7-7-7-7-7-7-7-7-----------|
E|---7-7-7-7-7-7-7-7--0-0-0-0-0-0-0-0--3-3-3-3-3-3-3-3--5-5-5-5-5-5-5-5-----------|  x2

e|--------------------------------------------------------------------------------|
B|--------------------------------------------------------------------------------|
G|--------------------------------------------------------------------------------|
D|---9----------------------------------------------------------------------------|
>> Registreer, speel & download <<
Meld nu aan en speel de rest van Blackbox Revelation - Kill For Peace (and Peace Will Die)

>> Registreer, speel & download <<
A|---9-----(let ring)-------------------------------------------------------------|
E|---7----------------------------------------------------------------------------|

VERSE 4: (palm muted)
-------
e|--------------------------------------------------------------------------------|
B|--------------------------------------------------------------------------------|
G|--------------------------------------------------------------------------------|
D|---9-9-9-9-9-9-9-9-9-9-9-9-9-9-9-9--5-5-5-5-5-5-5-5--7-7-7-7-7-7-7-7------------|             
A|---9-9-9-9-9-9-9-9-9-9-9-9-9-9-9-9--5-5-5-5-5-5-5-5--7-7-7-7-7-7-7-7------------|
E|---7-7-7-7-7-7-7-7-7-7-7-7-7-7-7-7--3-3-3-3-3-3-3-3--5-5-5-5-5-5-5-5------------|  x2

CHORUS 2:
---------
e|--------------------------------------------------------------------------------|
B|--------------------------------------------------------------------------------|
G|--------------------------------------------------------------------------------|
D|---9-9-9-9-9-9-9-9--2-2-2-2-2-2-2-2--5-5-5-5-5-5-5-5--7-7-7-7-7-7-7-7-----------|             
A|---9-9-9-9-9-9-9-9--2-2-2-2-2-2-2-2--5-5-5-5-5-5-5-5--7-7-7-7-7-7-7-7-----------|
E|---7-7-7-7-7-7-7-7--0-0-0-0-0-0-0-0--3-3-3-3-3-3-3-3--5-5-5-5-5-5-5-5-----------|  x4

VERSE 5:
-------
e|--------------------------------------------------------------------------------|
B|--------------------------------------------------------------------------------|
G|--------------------------------------------------------------------------------|
D|---9-9-9-9-9-9-9-9-9-9-9-9-9-9-9-9--5-5-5-5-5-5-5-5--7-7-7-7-7-7-7-7------------|             
A|---9-9-9-9-9-9-9-9-9-9-9-9-9-9-9-9--5-5-5-5-5-5-5-5--7-7-7-7-7-7-7-7------------|
E|---7-7-7-7-7-7-7-7-7-7-7-7-7-7-7-7--3-3-3-3-3-3-3-3--5-5-5-5-5-5-5-5------------|  x2

OUTRO:
------
e|--------------------------------------------------------------------------------|
B|--------------------------------------------------------------------------------|
G|--------------------------------------------------------------------------------|
D|---9-9-9-9-9-9-9-9-9-9-9-9-9-9-9-9--5-5-5-5-5-5-5-5--7-7-7-7-7-7-7-7------------|             
A|---9-9-9-9-9-9-9-9-9-9-9-9-9-9-9-9--5-5-5-5-5-5-5-5--7-7-7-7-7-7-7-7------------|
E|---7-7-7-7-7-7-7-7-7-7-7-7-7-7-7-7--3-3-3-3-3-3-3-3--5-5-5-5-5-5-5-5------------|  x8

e|--------------------------------------------------------------------------------|
B|--------------------------------------------------------------------------------|
G|--------------------------------------------------------------------------------|
D|---9----------------------------------------------------------------------------|
A|---9---(let ring)---------------------------------------------------------------|
E|---7----------------------------------------------------------------------------|

Oefen dit liedje eerst traag en probeer altijd rapper en rapper, het is niet moeilijk qua akkoorden, het zijn er drie dus dat moet wel gaan.

Link van het liedje op youtube: http://www.youtube.com/watch?v=1enimn3YS-c


More info