• Streaming gitaar liedjes spelen
  • Leer gitaar spelen & gitaarlessen
  • 75.000 leden
Nog 10 bass-tab te gaan voor deze maand.
Blackbox revelation
Never alone always together
by: Arne Heremans

Intro/Verse:
      E                                      D
e-----0----0----0----0----0--0--0--0-------------------------------|
b-----5---/8---\7----5----3--5--3--0----------7------7--7----------|
g---------------------------------------7-----7------7--7----7-----| x4
d--------------------------------------(7)-------------------------|
a------------------------------------5-----------------------------|
E-0~--------------------------------------------------------------|

Verse(Singing starts):
      E                                      D
e-----0----0----0----0----0--0--0--0-------------------------------|
b-----5---/8---\7----5----3--5--3--0----------7------7--7----------|
g---------------------------------------7-----7------7--7----7-----| x4
d---------------------------------------7--------------------------|
a------------------------------------5-----------------------------|
E-0~--------------------------------------------------------------|

Bridge:
   B                    A
e-------7~-----------------------5~---------------------------------------|
b-------7~-----------------------5~---------------------------------------|
g-------8~-----------------------6~---------------------------------------|
d-------9~----9---7--------------7~------7b8r7----5---7b8r7---------------|
a-------9~-----------10----7-----7~---------------------------------------|
E-7~-----------------------------5~---------------------------------------|

Chorus:
   G                      B                 Em
e--3---3---x--3--3-----7---7--x---7--7---------7---7-7-7-----7----7-7--7--|
b--3---3---x--3--3-----7---7--x---7--7---------7h8-8-8-7-----7h8--8-8--7--|
g--4---4---x--4--4-----8---8--x---8--8----9-9--9---9-9-9-9-9-9----9-9--9--|
d--5---5---x--5--5-----9---9--x---9--9----9-9--9---9-9-9-9-9-9----9-9--9--|
a--5---5---x--5--5-----9---9--x---9--9----7-7--7---7-7-7-7-7-7----7-7--7--|
E--3---3---x--3--3-----7---7--x---7--7----0-0-
De rest van dit nummer alleen voor Gitaartabs leden! Maak gratis Gitaartabs account aan . 
Gitaar Tabs

Download, print en speel de BassTab ♪ Blackbox Revelation - Never Alone Always Together

Meld je aan en print, download of speel binnen 15 sec mee BassTab ♫ Blackbox Revelation - Never Alone Always Together.
Reeds 70.000 gitaristen zijn je voorgegaan.

Gratis Aanmelden Gitaartabs

Wat vind jij van deze song? Blackbox Revelation - Never Alone Always Together

Comments Blackbox Revelation - Never Alone Always Together - bass-tab

Plaats opmerkingen e.o. suggestie voor Blackbox Revelation - Never Alone Always Together