• Streaming gitaar liedjes spelen
  • Leer gitaar spelen & gitaarlessen
  • 80.000 leden
Blackbox revelation
Never alone always together
by: Arne Heremans

Intro/Verse:
      E                                      D
e-----0----0----0----0----0--0--0--0-------------------------------|
b-----5---/8---\7----5----3--5--3--0----------7------7--7----------|
g---------------------------------------7-----7------7--7----7-----| x4
d--------------------------------------(7)-------------------------|
a------------------------------------5-----------------------------|
E-0~--------------------------------------------------------------|

Verse(Singing starts):
      E                                      D
e-----0----0----0----0----0--0--0--0-------------------------------|
b-----5---/8---\7----5----3--5--3--0----------7------7--7----------|
g---------------------------------------7-----7------7--7----7-----| x4
d---------------------------------------7--------------------------|
a------------------------------------5-----------------------------|
E-0~--------------------------------------------------------------|

Bridge:
   B                    A
e-------7~-----------------------5~---------------------------------------|
b-------7~-----------------------5~---------------------------------------|
g-------8~-----------------------6~---------------------------------------|
d-------9~----9---7--------------7~------7b8r7----5---7b8r7---------------|
a-------9~-----------10----7-----7~---------------------------------------|
E-7~-----------------------------5~---------------------------------------|

Chorus:
   G                      B                 Em
e--3---3---x--3--3-----7---7--x---7--7---------7---7-7-7-----7----7-7--7--|
b--3---3---x--3--3-----7---7--x---7--7---------7h8-8-8-7-----7h8--8-8--7--|
g--4---4---x--4--4-----8---8--x---8--8----9-9--9---9-9-9-9-9-9----9-9--9--|
d--5---5---x--5--5-----9---9--x---9--9----9-9--9---9-9-9-9-9-9----9-9--9--|
a--5---5---x--5--5-----9---9--x---9--9----7-7--7---7-7-7-7-7-7----7-7--7--|
E--3---3---x--3--3-----7---7--x---7--7----0-0--0---0-0-0-0-0-0----0-0--0--|

   G                       B                      E
e--3---3---x--3--3-----7---7--x---7--7------------------------------------|
b--3---3---x--3--3-----7---7--x---7--7------------------------------------|
g--4---4---x--4--4-----8---8--x---8--8------------------------------------|
d--5---5---x--5--5-----9---9--x---9--9------------------------------------| x2
a--5---5---x--5--5-----9---9--x---9--9------------------------------------|
E--3---3---x--3--3-----7---7--x---7--7----0~(gebruik tremolo)-------|

Verse:
             E                                    D
e-----0----0----0----0----0--0--0--0----------------------------------|
b-----5---/8---\7----5----3--5--3--0-----------7------7--7------------|
g---------------------------------------7------7------7--7----7-------| x4
d---------------------------------------7-----------------------------|
a------------------------------------5-------5----5--------5----------|
E-0~-----0~--0----0----0---------------------
>> Registreer, speel & download <<
Meld nu aan en speel de rest van Blackbox Revelation - Never Alone Always Together

>> Registreer, speel & download <<
-------------------------|

Bridge:
   B                    A
e-------7~-----------------------5~---------------------------------------|
b-------7~-----------------------5~---------------------------------------|
g-------8~-----------------------6~---------------------------------------|
d-------9~----9---7--------------7~------7b8r7----5---7b8r7---------------|
a-------9~-----------10----7-----7~---------------------------------------|
E-7~-----------------------------5~---------------------------------------|

Chorus:
   G                      B                 Em
e--3---3---x--3--3-----7---7--x---7--7---------7---7-7-7-----7----7-7--7--|
b--3---3---x--3--3-----7---7--x---7--7---------7h8-8-8-7-----7h8--8-8--7--|
g--4---4---x--4--4-----8---8--x---8--8----9-9--9---9-9-9-9-9-9----9-9--9--|
d--5---5---x--5--5-----9---9--x---9--9----9-9--9---9-9-9-9-9-9----9-9--9--|
a--5---5---x--5--5-----9---9--x---9--9----7-7--7---7-7-7-7-7-7----7-7--7--|
E--3---3---x--3--3-----7---7--x---7--7----0-0--0---0-0-0-0-0-0----0-0--0--|

   G                       B                      E
e--3---3---x--3--3-----7---7--x---7--7------------------------------------|
b--3---3---x--3--3-----7---7--x---7--7------------------------------------|
g--4---4---x--4--4-----8---8--x---8--8------------------------------------|
d--5---5---x--5--5-----9---9--x---9--9------------------------------------| x2
a--5---5---x--5--5-----9---9--x---9--9------------------------------------|
E--3---3---x--3--3-----7---7--x---7--7----0~(gebruik tremolo)-------|

Voor de solo: speel een open E en improviseer op the E major toonladder.


Chorus:
   G                      B                 Em
e--3---3---x--3--3-----7---7--x---7--7---------7---7-7-7-----7----7-7--7--|
b--3---3---x--3--3-----7---7--x---7--7---------7h8-8-8-7-----7h8--8-8--7--|
g--4---4---x--4--4-----8---8--x---8--8----9-9--9---9-9-9-9-9-9----9-9--9--|
d--5---5---x--5--5-----9---9--x---9--9----9-9--9---9-9-9-9-9-9----9-9--9--|
a--5---5---x--5--5-----9---9--x---9--9----7-7--7---7-7-7-7-7-7----7-7--7--|
E--3---3---x--3--3-----7---7--x---7--7----0-0--0---0-0-0-0-0-0----0-0--0--|

   G                       B                      E
e--3---3---x--3--3-----7---7--x---7--7------------------------------------|
b--3---3---x--3--3-----7---7--x---7--7------------------------------------|
g--4---4---x--4--4-----8---8--x---8--8------------------------------------|
d--5---5---x--5--5-----9---9--x---9--9------------------------------------| x4
a--5---5---x--5--5-----9---9--x---9--9------------------------------------|
E--3---3---x--3--3-----7---7--x---7--7----0~(gebruik tremolo)-------|

Outro:
     E
e-----------12---12------12--12-------12~--|
b-----------12---12------12--12-------12~--|
g------------------------------------------|
d------------------------------------------|x4
a------------------------------------------|
E-0~---------------------------------------|

Hier is een link van youtube met het liedje: http://www.youtube.com/watch?v=wPeEvqXjgyw

More info