• Streaming gitaar liedjes spelen
  • Leer gitaar spelen & gitaarlessen
  • 75.000 leden
let op!!! in het eerste coplet zit geen bas!!!!!!!!!



Eerste refrein] (want je kunt niets zeker weten...)
G:---------------|---------------|---------------|---------------|X1 
D:---------------|---------------|---------------|---------------|
A:12-------------|---------------|---------------|---------------|
E:-------1-------|8-------3------|1-------8------|---------------|


[Tweede couplet] (en als je sĀ“morgens opstaat....)
G:---------------|---------------|---------------|---------------| 
D:---------------|---------------|---------------|---------------|
A:---------------|---------------|---------------|---------------|
E:5--5-5--5--5-5-|8--8-8--8--8-8-|5--5-5--5--5-5-|1--1-1--3--3-3-|

G:---------------|---------------|---------------|X1
D:---------------|---------------|---------------|
A:3--3-3--3--3-3-|8--8-8--5--5-5-|---------------|
E:------3-------3|---------------|12--12-12
De rest van dit nummer alleen voor Gitaartabs leden! Maak gratis Gitaartabs account aan . 
Gitaar Tabs

Download, print en speel de BassTab ♪ Boudewijn De Groot - Avond

Meld je aan en print, download of speel binnen 15 sec mee BassTab ♫ Boudewijn De Groot - Avond.
Reeds 70.000 gitaristen zijn je voorgegaan.

Gratis Aanmelden Gitaartabs