• Streaming gitaar liedjes spelen
  • Leer gitaar spelen & gitaarlessen
  • 80.000 leden

D-------------------------------------------------------------------------------|
A-------------------------------------------------------------------------------|
F----------------------7--7--7-7-7--7-7-----------------------------------------|
C---7--7--7-7-7--7-7---7--7--7-7-7--7-7---5--5--5-5-5--5-5---7--7--7-7-7--7-7---|
G---7--7--7-7-7--7-7---5--5--5-5-5--5-5---5--5--5-5-5--5-5---7--7--7-7-7--7-7---|
C---7--7--7-7-7--7-7----------------------5--5--5-5-5--5-5---7--7--7-7-7--7-7---|

At the ending:

D----------------------------------------------|
A----------------------------------------------|
F-------------------------------------7~-------|
C------10--10--10--10-10-10--10-10----7~-------|
G------10--10--10--10-10-10--10-10----5~-------|
C------10--10--10--10-10-10--10-10-------------|

Chorus:
 Light Distortion


Guitar 1

D--------------------------------------------------------------------|
A--------------------------------------------------------------------|
F---------------------------7-7-7-7---10-10-10-10--------------------|
C---7-7-7-7---10-10-10-10---7-7-7-7---10-10-10-10---5-5-5-5----------|
G---7-7-7-7---10-10-10-10---5-5-5-5---8—-8--8--8----5-5-5-5----------|
C---7-7-7-7---10-10-10-10---------------------------5-5-5-5----------|


Guitar 2

D--------------------------------------------------------------------|
A--------------------------------------------------------------------|
F---------------------------7-7-7-7---10-10-10-10---12-12-12-12------|
C---7-7-7-7---10-10-10-10---7-7-7-7---10-10-10-10---12-12-12-12------|
G---7-7-7-7---10-10-10-10---5-5-5-5---8—-8--8--8----10-10-10-10------|
C---7-7-7-7---10-10-10-10--------------------------------------------|

Ending Chorus:

D--------------------|  2x
A--------------------|
F---------7~---------|
C---10~---7~---7~----|
G---10~---5~---7~----|
C---10~--------7~----|

Verse 2:
 Clean


Guitar 1&2

D-------------------------------------------------------------------------------|
A-------------------------------------------------------------------------------|
F----------------------7--7--7-7-7--7-7-----------------------------------------|
C---7--7--7-7-7--7-7---7--7--7-7-7--7-7---5--5--5-5-5--5-5---7--7--7-7-7--7-7---|
G---7--7--7-7-7--7-7---5--5--5-5-5--5-5---5--5--5-5-5--5-5---7--7--7-7-7--7-7---|
C---7--7--7-7-7--7-7----------------------5--5--5-5-5--5-5---7--7--7-7-7--7-7---|

At the ending:

D----------------------------------------------|
A----------------------------------------------|
F-------------------------------------7~-------|
C------10--10--10--10-10-10--10-10----7~-------|
G------10--10--10--10-10-10--10-10----5~-------|
C------10--10--10--10-10-10--10-10-------------|


Chorus:
 Light Distortion


Guitar 1

D-----------------------------
>> Registreer, speel & download <<
Meld nu aan en speel de rest van Nickelback - Nickelback

>> Registreer, speel & download <<
---------------------------------------|
A--------------------------------------------------------------------|
F---------------------------7-7-7-7---10-10-10-10--------------------|
C---7-7-7-7---10-10-10-10---7-7-7-7---10-10-10-10---5-5-5-5----------|
G---7-7-7-7---10-10-10-10---5-5-5-5---8—-8--8--8----5-5-5-5----------|
C---7-7-7-7---10-10-10-10---------------------------5-5-5-5----------|


Guitar 2

D--------------------------------------------------------------------|
A--------------------------------------------------------------------|
F---------------------------7-7-7-7---10-10-10-10---12-12-12-12------|
C---7-7-7-7---10-10-10-10---7-7-7-7---10-10-10-10---12-12-12-12------|
G---7-7-7-7---10-10-10-10---5-5-5-5---8—-8--8--8----10-10-10-10------|
C---7-7-7-7---10-10-10-10--------------------------------------------|


Ending Chorus:

D--------------------|  1x
A--------------------|
F---------7~---------|
C---10~---7~---7~----|
G---10~---5~---7~----|
C---10~--------7~----|

Bridge:

„I wanna sing those Songs...“
D--------------------------------------------------------|
A--------------------------------------------------------|
F--------------------------------------------------------|
C----10-10-10-10-10---5-5-5-5-5---10-10-10-10-10~---5~---|
G----10-10-10-10-10---5-5-5-5-5---10-10-10-10-10~---5~---|
C----10-10-10-10-10---5-5-5-5-5---10-10-10-10-10~---5~---|


D-------------------------------------------------------------------------------|
A-------------------------------------------------------------------------------|
F----------------------7--7--7-7-7--7-7-----------------------------------------|
C---7--7--7-7-7--7-7---7--7--7-7-7--7-7---5--5--5-5-5--5-5---7--7--7-7-7--7-7---|
G---7--7--7-7-7--7-7---5--5--5-5-5--5-5---5--5--5-5-5--5-5---7--7--7-7-7--7-7---|
C---7--7--7-7-7--7-7----------------------5--5--5-5-5--5-5---7--7--7-7-7--7-7---|

Ending:
 Light Distortion


Guitar 1

D--------------------------------------------------------------------|
A--------------------------------------------------------------------|
F---------------------------7-7-7-7---10-10-10-10--------------------|
C---7-7-7-7---10-10-10-10---7-7-7-7---10-10-10-10---5-5-5-5----------|
G---7-7-7-7---10-10-10-10---5-5-5-5---8—-8--8--8----5-5-5-5----------|
C---7-7-7-7---10-10-10-10---------------------------5-5-5-5----------|


Guitar 2

D--------------------------------------------------------------------|
A--------------------------------------------------------------------|
F---------------------------7-7-7-7---10-10-10-10---12-12-12-12------|
C---7-7-7-7---10-10-10-10---7-7-7-7---10-10-10-10---12-12-12-12------|
G---7-7-7-7---10-10-10-10---5-5-5-5---8—-8--8--8----10-10-10-10------|
C---7-7-7-7---10-10-10-10--------------------------------------------|

More info

Comments Nickelback - Nickelback - bass-tab

kenworth

Kenworth 2011-06-04

Zou je de tekst wilen bijplaatsen?, alvast bedankt