• Streaming gitaar liedjes spelen
  • Leer gitaar spelen & gitaarlessen
  • 80.000 leden
Kevin Bruin

3 Doors Down - Be Like That

Intro: 2x
e|----3-------0-------0------0---
B|-----0----3--3-----3-3----3-3--
G|--0---0----2--2-------0--0---0-    
D|---0---0-0-----0--2-----2------
A|-----------------2-----3-------
E|-3--------------0--------------

Verses:
Gtr 1: 4x
e|----3-------0-------0------0---
B|-----0----3--3-----3-3----3-3--
G|--0---0----2--2-------0--0---0-    
D|---0---0-0-----0--2-----2------
A|-----------------2-----3-------
E|-3--------------0--------------

Gtr 2: 2X
    G       D      Em       C
e|--3-------2-------0-------0----------
B|--0-------3-------0-------1----------
G|--0-------2-------0-------0----------
D|--0-------0-------2-------2----------
A|--2---------------2-------3----------
E|--3----------------------------------

Chorus:

    G       D      Em       C      G      D     Em      C
e|--3-------2-------0-------0------3------2------0------0---
B|--0-------3-------0-------1------0------3------0------1---
G|--0-------2-------0-------0------0------2------0------0---
D|--0-------0-------2-------2------0------0------2------2---
A|--2---------------2-------3------2-------------2------3---
E|--3------------------------------3------------------------
   Am       C       G       G      Am     C      G    Bm  C  
e|--0-------0-------3-------3------0------0------3-----2--0-
B|--1-------1-------0-------0------1------1------0-----3--1- 
G|--2-------0-------0-------0------2------
0------0-----4--0- 
D|--2-------2-------0-------0------2------2------0-----4--2- 
A|--0-------3-------2-------2------0------3------2-----2--3- 
E|------------------3-------3--------------------3---------- 
  
Outro:
    G       D      Em       C      G      D     Em      C
e|--3-------2-------0-------0------3------2------0------0---
B|--0-------3-------0-------1------0------3------0------1---
G|--0-------2-------0-------0------0------2------0------0---
D|--0-------0-------2-------2------0------0------2------2---
A|--2---------------2-------3------2-------------2------3---
E|--3------------------------------3------------------------
  
   G        D      Em       C      G      D     Em      G
e|--3-------2-------0-------0------3------2------0------0---
B|--0-------3-------0-------1------0------3------0------1---
G|--0-------2-------0-------0------0------2------0------0---
D|--0-------0-------2-------2------0------0------2------2---
A|--2---------------2-------3------2-------------2------3---
E|--3------------------------------3------------------------
  
   Bm       C      Bm       C     Bm      C     Bm
e|--2-------0-------2-------0------2------0------3--
B|--3-------1-------3-------1------3------1------0--
G|--4-------0-------4-------0------4------0------0--
D|--4-------2-------4-------2------4------2------0--
A|--2-------3-------2-------3------2------3------2--
E|-----------------------------------------------3--



More info

Comments 3 Doors Down - Be Like That - chords

kenworth

Kenworth 2012-08-12

Als je de tekst toevoegt kunnen we het helemaal goedkeuren