• Streaming gitaar liedjes spelen
  • Leer gitaar spelen & gitaarlessen
  • 80.000 leden
Riff 1 (3 x)

Riff 1
Zittend bij het raam, ik kijk naar al die mooie mensen
Riff 1
Ze gaan uit, ze gaan naar huis, je weet het niet
Riff 1
Zo langzaam als het regent, de verliefden doet het niets
Riff 2
Laat niemand ze vertellen dat het giet

Riff 1 (2 x)

Riff 1                                    Dsus4  D
Maar diegenen die alleen gaan, weggedoken in     hun jas
        Gm                          C                             A
Zij die gaan omdat ze ergens moeten zijn, ze kleuren beter bij de liedjes
                    Dm             Gm                 A    C
Die de barvrouw ons draait, rustig als het zesde glas wijn

              F                    Bb                    Gm              C
Er blijft een vrouw staan voor het raam, het lijkt of ze wil dat ik iets zeg
             F       A      A#            Gm                             C
Het zou hier Brussel moeten heten, was ik eindelijk eens weg (dan was ik eindelijk eens weg)

Riff 1 (2 x)

Riff 1
Zittend bij het raam, ik kijk naar al die mooie mensen
Riff 1
En af en toe keken ze terug, maar vaker niet
Riff 1
Binnen gaan de jassen aan, de glazen leeg, de mensen staan
Riff 2
21 gulden staan we quitte

Riff 1                                       Dsus4  D
En ik ga mee met die alleen gaan, weggedoken in     hun jas
        Gm                   C                               A
Niemand snapt de eenzame die lacht, ik ga links want ik moet rechts
                        
 Dm             Gm            A     C
En we gaan nog niet naar huis, ik speel Brusseltje vannacht

           F             Bb                    Gm              C
Er zit een dame voor het raam, het lijkt of ze wil dat ik iets zeg
             F       A      A#            Gm                         C
Het zou hier Brussel moeten heten, was ik eindelijk eens weg (was ik eindelijk eens weg)
           F             Bb                    Gm              C
Er zit een dame voor het raam, het lijkt of ze wil dat ik iets zeg
             F       A      A#            Gm                         C
Het zou hier Brussel moeten heten, was ik eindelijk eens weg (was ik eindelijk eens weg)

F  Gm  A#  C  F  Gm  A#  C  F  Gm  A#  C  F  Gm  A#  C

Riff 1, Riff 3


Riff 1
e |-----------------------------------|
B |------3-------3-------3-------3----|
G |----2---0---0---0---2---2---2---2--|
D |--3-------2-------0-------0--------|
A |-----------------------------------|
E |-----------------------------------|

Riff 2
e |--------------------------0--------|
B |------3-------3-------3-------3----|
G |----2---0---0---0---2---2---2---2--|
D |--3-------2-------0----------------|
A |-----------------------------------|
E |-----------------------------------|

Riff 3
e |-----------------3--2--2--|
B |------3-------3--3--3--3--|
G |----2---0---0----3--2--2--|
D |--3-------2------5--0--0--|
A |--------------------------|
E |--------------------------|

More info