• Streaming gitaar liedjes spelen
  • Leer gitaar spelen & gitaarlessen
  • 75.000 leden
|-2-4-||-5--4-2-0-2-4-2 2--4-0 0--4-2 2--2-4-||5--4-2-0-2-4-2 2--4-0-0--4-2 2|
b|-0-0-||-0--0-0-0-0-0-0-0--0-0-0--0-0-0--0-0-||0--0-0-0-0-0-0-0--0-0-0--0-0-0|
g|-----||*-----------------------------------*||------------------------------|
D|-----||*-----------------------------------*||------------------------------|
A|-----||-------------------------------------||------------------------------|
E|-----||-------------------------------------||------------------------------|
Gtr. 2       w/Gtr. 1                          Pattern 1
e||---------------------------------------||---------------|
b||---------------------------------------||---------------|
g||*------4------1-----4-4----1-1----4-4-*||-1-4--4--4--4--| 4 Times
D||*------4------2-----4-4----2-2----4-4-*||-2-4--4--4--4--|
A||-------2------2-----2-2----2-2----2-2--||-2-2--2--2--2--|
E||--------------0------------0-0---------||-0-------------|

/ Verse :  Guitar 1                                                      
|   Pattern 2b                                                            |
|  E/B B5          E/B B5          E/B B5          E/B B5           A5/B  |
| e|---------------|---------------|---------------|---------------|-|    |
| b|---------------|---------------|---------------|---------------|-|    |
| g|-1-4--4--4--4--|-1-4--4--4--4--|-1-4--4--4--4--|-1-4--4--4--4--|2| 2x |
| D|-2-4--4--4--4--|-2-4--4--4--4--|-2-4--4--4--4--|-2-4--4--4--4--|2|    |
| A|-2-2--2--2--2--|-2-2--2--2--2--|-2-2--2--2--2--|-2-2--2--2--2--|0|    |
| E|-0-------------|-0-------------|-0-------------|-0-------------|-|    |
|                                                                         |
| Gtr.2 plays something like:                                             |
|   Pattern 2a w/Gtr.1                                                    |
| e|----------------------------------------------|---------|             |
| b|----------------------------------------------|---------|             |
| g|---4---------------4---------------4--------4-|2--1-4-4-|             |
| D|-6-4--4--4--4----6-4--4--4--4----6-4--4--4--4-|2--2-4-4-|             |
| A|-2-2--2--2--2----2-2--2--2--2----2-2--2--2--2-|-----2-2-|             |
| E|----------------------------------------------|---------|             |
                                                                         /

 E/B B5  A5/B E/B B5 E/B            A5/B B5    E/B               A5/B  B5
e|----------------------------------------------------------------------------|
b|-----------------------------------------------------
De rest van dit nummer alleen voor Gitaartabs leden! Maak gratis Gitaartabs account aan . 
Gitaar Tabs

Download, print en speel de Chord ♪ Ac/dc - Hard As A Rock

Meld je aan en print, download of speel binnen 15 sec mee Chord ♫ Ac/dc - Hard As A Rock.
Reeds 70.000 gitaristen zijn je voorgegaan.

Gratis Aanmelden Gitaartabs