• Streaming gitaar liedjes spelen
  • Leer gitaar spelen & gitaarlessen
  • 75.000 leden
N.C.                   E5 B5 D5 A               E      B  D  A
e ----------------- e -------------.-------- e -----------2----------
B ----------------- B -------3--2--.-------- B -----------3--2-------
G ----------------- G ----4--2--2--.-------- G -----1--4--2--2-------
D ----------------- D -2--4--0--2--.-------- D -----2--4--0--2-------
A ------2-5-0-2---- A -2--2-----0--.----3--- A -----2--2-----0-------
E --3-5---------0-- E -0-----------.--0----- E -0---0-----------0-3--

                    fig.2
        E  B (G)
e  ---------------.--2----2---2--2-|---2--2-2---2--------
B  -----------0---.--3----3---3--3-|---3--3-3---3--------
G  --------4--0---.--2----2---2--2-|---2--2-2---2--------
D  -----2--4--0---.--0----0---0--0-|---0--0-0---0--------
A  -----2--2--0---.----------------|---------------------
E  -0---0---------.----------------|---------------------

Pre-Solo  (with fig.2 2 Times!)
        p      p     p     p     p       p     p     p
e  -0-12-0-0-10-0-0-9-0-0-7-0-0-5-0-0-0-3-0-0-5-0-0-3-0-0
B  ------------------------------------------------------
G  ------------------------------------------------------
D  ------------------------------------------------------
A  ------------------------------------------------------
E  ------------------------------------------------------

     p     p     p     p     p     p     p     p     bend~~~~~ b ~~~
e  -5-0-0-3-0-0-5-0-0-3-0-0-5-0-0-3-0-0-5-0-0-3--0-0---------15-17-
B  -------------------------------------------------3(5)-----------
G  ----------------------------------------------------------------
D  ----------------------------------------------------------------
A  ----------------------------------------------------------------
E  ----------------------------------------------------------------

Solo (with fig.1 (7 times))
         E   B              D        A      E
~~~~~~~~~                       bend~~~~       b    b  hold bend
e  --------15-12-----------12----------------------------
B  ---------------15-12-------15-17-----\-0--------------
G  ---------------------14--------------------2-4--2-4-4-
D  ------------------------------------------------------
A  ------------------------------------------------------
E  ---------------------------------------------------
De rest van dit nummer alleen voor Gitaartabs leden! Maak gratis Gitaartabs account aan . 
Gitaar Tabs

Download, print en speel de Chord ♪ Ac/dc - Sin City

Meld je aan en print, download of speel binnen 15 sec mee Chord ♫ Ac/dc - Sin City.
Reeds 70.000 gitaristen zijn je voorgegaan.

Gratis Aanmelden Gitaartabs

Comments Ac/dc - Sin City - chords

rick

Rick 2007-09-23

heb je nog meer ik hou van ac dc