• Streaming gitaar liedjes spelen
  • Leer gitaar spelen & gitaarlessen
  • 75.000 leden
A    = 5-7-7-6-5-5
F    = 1-3-3-2-1-1
D    = x-5-7-7-7-5
G    = 3-5-5-4-3-3

Als er in een gedeelte geen akkoorden staan dan moeten daar dezelfde
akkoorden gespeeld worden als in een gedeelte daarvoor. Je hoort vanzelf
welke akkoorden je bij dat gedeelte moet spelen.

Riff:
    A  A/C   A/D   A/C
e |---------------------|
B |---------------------|
G |---------------------|
D |-7--7--7--7--7--7--7-|
A |-7--7--7--7--7--7--7-|
E |-5--8--5-10--5--8--5-|

of

e |---------------------|
B |---------------------| 
G |-2--2--2--2--2--2--2-| 
D |-2--2--2--2--2--2--2-| 
A |-0--3--0--5--0--3--0-| 
E |---------------------| 

(riff)(riff)
|A    |A    |
(riff)(riff)
|A    |A    |

(riff)
  Wanna tell you a story
(riff)
  About a woman I know
(riff)
  Ooh, when it comes to lovin’
(riff)
  She steal the show

 She ain’t exactly pretty
 Ain’t exactly small
 Four two third nine fifty-six
 You could see she could it all

(riff)(riff)
|A    |A    |
(riff)(riff)
|A    |A    |

Never had a woman, never had a woman like you
Doing all the things, 
De rest van dit nummer alleen voor Gitaartabs leden! Maak gratis Gitaartabs account aan . 
Gitaar Tabs

Download, print en speel de Chord ♪ Ac/dc - Whole Lotta Rosie

Meld je aan en print, download of speel binnen 15 sec mee Chord ♫ Ac/dc - Whole Lotta Rosie.
Reeds 70.000 gitaristen zijn je voorgegaan.

Gratis Aanmelden Gitaartabs