• Streaming gitaar liedjes spelen
  • Leer gitaar spelen & gitaarlessen
  • 80.000 leden
A       x02220
Am7     x02010
Am7/G   302010
B       x24442
Bb      x13331
Bm      x24432
Bm7     x24232
D       xx0232
D/A     x00232
Dm      xx0231
Dm/A    x00231
F#m7/C# x42222
G       320033
GMaj7   320002
Gm      355333


[INTRO]
| Dm    | Dm         |


[COUPLET 1]
| Dm    | Am7/G         | Bb            | Dm/A          | 2x
| Gm    | Am7           | Gm            | A             |

Ik hoop dat er een dag komt
Dat ik terugkijk op een tijd
Waarvan ik heb genoten
Een leven zonder spijt
Het was vast niet even makkelijk
Dingen doen die ik toen deed
En heb ik aan die kleine
Wel mijn aandacht goed besteed?

Dat hij mij dan nog opbelt
En zegt: Hé ouwe, ga je mee?
Dat is mijn wens
Maar maak ik dit nog mee?


[REFREIN 1]
| D / F#m7/C# / | Bm / B / | G / Gmaj7 / | A / D/A A |
| D / F#m7/C# / | Bm / Bm7 | G / A     / |

Mijn laatste jaren hoop ik niet alleen te staan
Dat ik koos voor mezelf is spijt nadien
Of heb je mij toch al die jaren bijgestaan?
En eindigen we samen, heel misschien?

[TUSSENSTUK]
Als intro

[COUPLET 2]
Het lot ligt in mijn handen
En dat maakt me juist zo bang
Want wil je mij de baas zijn
Ga ik juist mijn eigen gang
Maar als je in m'n hart kijkt
Wil ik echt alleen ma
>> Registreer, speel & download <<
Meld nu aan en speel de rest van André Hazes Jr - Heel Misschien

>> Registreer, speel & download <<
ar jou
En van mijn zoon genieten
Waar ik zielsveel van hou

En als hij ooit een vraag heeft
Over hoe het leven loopt
Ik hem kan overtuigen
Zoals jij hoopt

[REFREIN]

[SOLO]
op de eerste vier maten van het refrein...

                        D        F#m7/C#        Bm         B               G       GMaj7
e|--------------------|-----------------------|--------------------------|--------------------|
B|--------------------|-7vvv---------7--------|-------------------/13-12-|--------------------|
G|----------7-9-9/10--|----------------9-7----|---------------9-11-------|-12vvv-------7h9p7--|
D|-7-9-9/10-----------|--------------------11-|-9vv--------11------------|------------------9-|
A|--------------------|-----------------------|--------------------------|--------------------|
E|--------------------|-----------------------| -------------------------|--------------------|
   A           D/A   A
e|-----------------------|---------
B|------------------/12--|-10vvv---
G|-------------9---------|---------
D|-11----11-12-----------|---------
A|-----------------------|---------
E|-----------------------|---------

Of heb je mij toch al die jaren bijgestaan?
En eindigen we samen, heel misschien?

[OUTRO]
Als intro.

More info

Meer André Hazes Jr songs

André Hazes Jr - Heel Misschien