• Streaming gitaar liedjes spelen
  • Leer gitaar spelen & gitaarlessen
  • 80.000 leden
Balentine



LET'S START WITH SOME FIGURES...


 |         |    |         | |    |
 |      Am | A7 |      C7 |C| C7 |
e|--------0-0---+--------0---0----[INTRO]
B|-------1---0--+-------0-{1}-0---
G|------2-------+------0----------
D|-----2--------+----2------------
A|--0-----------+--3--------------
E|--------------+-----------------
(play 4 times)


e|-(0)--0-0-0-0-0-0-0-0-0-0-0-0-0-0---[FIG1a]
B|-(1)--1-0-1-0-1-0-1-0-1-0-1-0-1-0---
G|-(2)--2-2-2-2-2-2-2-2-2-2-2-2-2-2---
D|--2---2-2-2-2-2-2-2-2-2-2-2-2-2-2---
A|--0--(0)--------(.....)--------(0)--
E|------------------------------------
    Balentine,                  If we could..


e|--2-2------2--[FIG1b]
B|--2-2------2--
G|--0-0------0--
D|--0-0------0--
A|--2-2------2--
E|--3-3-(..)-3--
  ..turn back the time.     We would have..


e|--0---0-0-0-0--[FIG1c]
B|--1---0-1-0-1--
G|--2---2-2-2-2--
D|--2---2-2-2-2--
A|--0--(0-...-0)-
E|---------------
  ..made the same mis-

e|--2--2--2--2-2-2--x-------------[FIG1d]
B|--2--2--2--2-2-2--x-------------
G|--0--0--0--0-0-0--x--(silence)--
D|--0--0--0--0-0-0--x-------------
A|--2--2--2--2-2-2--x-------------
E|--3--3--3--3-3-3--x-------------		
  -take,              All over again


e|--0--0--0-0-0-0-0--0-(0)--[FIG2]
B|--1--1--1-1-1-1-1--1-(0)--
G|--2--2--0-0-0-0-0--0-(0)--
D|--2--2--2-2-2-2-2--2-(0)--
A|--0--0--3-3-3-3-3--3-(0)--
E|--------------------------
(play repeatedly)




LYRICS:
-------

[intro]

[fig1]:
Am
Balentine,

Am          G
If we c
>> Registreer, speel & download <<
Meld nu aan en speel de rest van Bettie Serveert - Balentine

>> Registreer, speel & download <<
ould turn back the time.

G             Am               G
We would have made the same mistake,

(silence)      [fig2]
All over again.


Balentine
If we could turn back the time
We would have made the same mistake
All over again


[fig2]
-BREAK-


Am
Balentine

Am                G
Well it could all turn out fine

G            C          ?C?                ?A?
If you would try to understand what's on my mind

   C              ?A?
Oh Balentine

           C              ?A?
My dearest Valentine



C                 G                [fig2]
      And i could learn a lot from you

C                  G                [fig2]
      Cause no-one comes as near as you

C                    [fig1d]             [fig2]
      And i don't really..   ..want them to



Balentine
If we could turn back the time
We would have made the same mistake
All over again

Balentine
We'll it hurts me sometimes
To think that you and i have wasted all this time
Oh Balentine
My dearest Valentine

And i could learn a lot from you
Cause no-one does the things you do
And i don't really want them to

[fig2]
-SOLO-
(end on Am)

---------------------------------------------------------------------------

Corrections welcome!


{1}	- just put your finger on the 1st fret without hitting the string
(0)	- additional note
(..)	- didn't feel like typing the same thing over and over again...


G (G/D) -  320022
C       -  x32010
C7 (?)	-  x32000
Am	-  x02210
A7 (?)	-  x02200



More info