• Streaming gitaar liedjes spelen
  • Leer gitaar spelen & gitaarlessen
  • 80.000 leden
Akkoorden:
E     x79997 / 022100
E/D#  x699xx
B     x24442 / 799877
C#m   x46654
F#m   244222
Asus2 x02200
D     xx0232
Bm    x24432
Cmaj7 x32000
G*    320003
Em*   022000
E7M   xx989x
D#7M  xx878x
F#m7  xxx222
Em7   xxx000


Riff1
e----12-------14-12--
B-12---12-12---------
G--------------------
D--------------------
A--------------------
E--------------------
E (&Riff1)         E/D#                              B
  De lentewind die waaide      Werd al zwoeler en je zwaaide
                       C#m                                   F#m
Was het moeilijk om te merken   Dat ik de zoen die jij me toeblies
                           Asus2             /   / /
Niet meer meekreeg toen ik wegreed?
D             Bm                    F#m
   Je keek me na,      ik deed mijn ogen dicht
F#m
   Ik zag nog je gezicht maar was alleen
D                  Bm                             F#m
   Alleen met mijn vrienden en ik wist dat het al laat was
F#m
   En dat jij steeds sneller uit het zicht verdween
Bm                    F#m                        Bm
   Ik kan alleen maar spelen, mijn noten en mijn rol
                      Asus2
   Dat is niets om te delen, en het maakt mijn leegte vol
[Refrein]
E                E/D#                   B
   Hier__ ben ik veilig_, hier__ ben ik sterk_
                 C#m
   Hier__ ben ik heilig_, dit_ is_ mijn_ kerk_
E                E/D#                B
   Dit__ is mijn haven_, hier leg ik aan_
               C#m                   F#m
 
  Hier kan ik slapen_, hier moet ik staan_
                  Asus2
   Hier ligt mijn hart voor jou
D             Bm                    F#m
   Ik kijk je aan,       je doet je ogen dicht
F#m
   Je weet waarom ik hier sta en je lacht
D                Bm                           F#m
   Ik richt mijn blik  op heel je wezen en je weet dat ik kan lezen
F#m
   Wat je denkt en wat je nu van mij verwacht
Bm                      F#m                        Bm
   Ik kan_ alleen_ maar spelen, mijn noten en mijn rol
                        Asus2
   Dat moet ik hier wel delen, het maakt mijn leegte vol
[Herhaal refrein]
[Instrumentaal]
Cmaj7   G*   Cmaj7   Em*
E7M  D#7M  F#m7  Em7
C   D
Instrumentaal
e-0-22-0-0-22-0--2-33-2-2-33-2--0-22-0-0-22-0--2-33-2-2-33-2-
B-0----------------------------------------------------------
G-0----------------------------------------------------------
D-2-----------------------------2--------------2-------------
A-3--------------2--------------3--------------2-------------
E----------------3-----------------------------0-------------
  Cmaj7          G*             Cmaj7          Em*
Instrumentaal (funky)
e-----------------------2-2-2-2----0-0-0-0----
B-9-9-9-9----8-8-8-8----2-2-2-2----0-0-0-0----
G-8-8-8-8----7-7-7-7----2-2-2-2----0-0-0-0----
D-9-9-9-9----8-8-8-8--------------------------
A---------------------------------------------
E---------------------------------------------
  E7M        D#7M       F#m7       Em7
[Herhaal refrein]
Asus2  (&Riff1)

More info

Comments Blof - Hier - chords

jurgen1910

Jurgen1910 2015-06-15

probeer eens 767 i.p.v. 878 in het instrumentale deel "funky"