• Streaming gitaar liedjes spelen
  • Leer gitaar spelen & gitaarlessen
  • 75.000 leden
TRAVESTIE

  C               G               C               G
e:--------0------|-----------3---|--------0------|-----------3---|
B:----1-------1--|----0---0h1---0|----1-------1--|----0---0h1---0|
G:--0---0---0---0|--0---0-----0--|--0---0---0---0|--0---0-----0--|
D:---------------|---------------|---------------|---------------|
A:3-------3------|---------------|3-------3------|---------------|
E:---------------|3-------3------|---------------|3-------3------|

  D               A       C       G               D
e:-------0h2-----|---------------|----------3----|-------0h2-----|
B:----3-------3--|----2-------1--|----0--0h1----0|----3-------3--|
G:--2---2---2---2|--2---2---0---0|--0---0-----0--|--2---2---2---2|
D:0------0-------|---------------|---------------|0------0-------|
A:---------------|0-------3------|---------------|---------------|
E:---------------|---------------|3------3-------|---------------|

  D               C               G               C
e:-------0h2-----|--------0------|----------3----|----------0----|
B:----3-------3--|----1-------1--|----0--0h1----0|----0--0h1----0|
G:--2---2---2---2|--0---0---0---0|--0---0-----0--|--0---0-----0--|
D:0------0-------|---------------|---------------|---------------|
A:---------------|3-------3------|---------------|3------3-------|
E:---------------|---------------|3------3-------|---------------|
                  Ze is 17 jaar....

  G               D               A       C       G
e:----------3----|-------0h2-----|---------------|---------------|
B:----0--0h1----0|----3-------3--|----0-------1--|----0--0h1----0|
G:--0---0-----0--|--2---2---2---2|--0---0---0---0|--0---0-----0--|
D:---------------|0------0-------|---------------|---------------|
A:---------------|---------------|0-------3------|---------------|
E:3------3-------|---------------|---------------|3------3-------|

  D               D               C               G
e:-------0h2-----|-------0h2-----|--------0------|----------3----|
B:----3-------3--|----3-------3--|----1-------1--|----0--0h1----0|
G:--2---2---2---2|--2---2---2---2|--0---0---0---0|--0---0-----0--|
D:0------0-------|0------0-------|---------------|---------------|
A:---------------|---------------|3-------3------|---------------|
E:---------------|---------------|---------------|3------3-------|
                                  Zo'n meisje noemt....

  C               G               D               A       C
e:--------0------|----------3----|-------0h2-----|---------------|
B:----1-------1--|----0--0h1----0|----3-------3--|----2-------1--|
G:--0---0---0---0|--0---0-----0--|--2---2---2---2|--2---2---0---0|
D:---------------|---------------|0------0-------|---------------|
A:3-------3------|---------------|---------------|0-------3------|
E:---------------|3------3-------|---------------|---------------|

  G               D               D               A
e:-------------
De rest van dit nummer alleen voor Gitaartabs leden! Maak gratis Gitaartabs account aan . 
Gitaar Tabs

Download, print en speel de Chord ♪ Boudewijn De Groot - Travestie

Meld je aan en print, download of speel binnen 15 sec mee Chord ♫ Boudewijn De Groot - Travestie.
Reeds 70.000 gitaristen zijn je voorgegaan.

Gratis Aanmelden Gitaartabs