• Streaming gitaar liedjes spelen
  • Leer gitaar spelen & gitaarlessen
  • 75.000 leden
e -----------------------------------------------------------------------------
B --------7----------7-------7-------------2--3----3--5--5----------7----------
G --8--9-------7--9-------9-----9--9^4--4---------------------7--9-------------
D -----------------------------------------------------------------------------
A -----------------------------------------------------------------------------
E -----------------------------------------------------------------------------

e --7---------------7--10--7-----------------------------12---------12--12b14--
B --7--10b12r10--7------------10b12--10--7--------12b14------12b14-------------
G --7----
De rest van dit nummer alleen voor Gitaartabs leden! Maak gratis Gitaartabs account aan . 
Gitaar Tabs

Download, print en speel de Chord ♪ De Dijk - Bloedend Hart

Meld je aan en print, download of speel binnen 15 sec mee Chord ♫ De Dijk - Bloedend Hart.
Reeds 70.000 gitaristen zijn je voorgegaan.

Gratis Aanmelden Gitaartabs