• Streaming gitaar liedjes spelen
  • Leer gitaar spelen & gitaarlessen
  • 75.000 leden
 intro
----------


 e|-3-------1-------0-------0-------3--------1-------3-------3-------|
 B|-3-------1-------1-------1-------3--------1-------3-------3-------|
 G|-0---------------0-------0-------0------------------------0-------|
 D|-------------------------3----------------------------------------|
 A|-------------------------3----------------------------------------|
 E|------------------------------------------------------------------|

    G5
 e|------------------------------------------------------------------|
 B|------------------------------------------------------------------|
 G|------------------------------------------------------------------|
 D|-5---5---5---5---5---5---5---5-----5---5---5---5---5---5---5---5--|
 A|-5---5---5---5---5---5---5---5-----5---5---5---5---5---5---5---5--|
 E|-3---3---3---3---3---3---3---3-----3---3---3---3---3---3---3---3--| x 7,5
        P   P   P       P   P   P         P   P   P       P   P   P
        M   M   M       M   M   M         M   M   M       M   M   M


 Vers
----------


    C5      Bb5
 e|------------------------------------------------------------------|
 B|------------------------------------------------------------------|
 G|-5--\----3--------------------------------------------------------|
 D|-5--\----3--------------------------------------------------------|
 A|-3--\----1--------------------------------------------------------|
 E|------------------------------------------------------------------|


Nobody gonna take my car, 
    G5
 e|------------------------------------------------------------------|
 B|------------------------------------------------------------------|
 G|------------------------------------------------------------------|
 D|-5---5---5---5---5---5---5---5-----5---5---5---5---5---5---5---5--|
 A|-5---5---5---5---5---5---5---5-----5---5---5---5---5---5---5---5--|
 E|-3---3---3---3---3---3---3---3-----3---3---3---3---3---3---3---3--|
        P   P   P       P   P   P         P   P   P       P   P   P
        M   M   M       M   M   M         M   M   M       M   M   M


I'm gonna race it to the              ground ...
                                      Bb5         C5
 e|------------------------------------------------------------------|
 B|------------------------------------------------------------------|
 G|-----------------------------------3----X------5-------X-------3--|
 D|-5---5---5---5---5---5---5---5-----3----X------5-------X-------3--|
 A|-5---5---5---5---5---5---5---5------------------------------------|
 E|-3---3---3---3---3---3---3---3------------------------------------| x 2
        P   P   P       P   P   P         
        M   M   M       M   M   M        


Ooh it's a killing machine 
    Fmaj F5
 e|---------------------------------------
De rest van dit nummer alleen voor Gitaartabs leden! Maak gratis Gitaartabs account aan . 
Gitaar Tabs

Download, print en speel de Chord ♪ Deep Purple. - Highway Star

Meld je aan en print, download of speel binnen 15 sec mee Chord ♫ Deep Purple. - Highway Star.
Reeds 70.000 gitaristen zijn je voorgegaan.

Gratis Aanmelden Gitaartabs