• Streaming gitaar liedjes spelen
  • Leer gitaar spelen & gitaarlessen
  • 80.000 leden
Riff: 

   D
e -----------------------------------|
B ------3-3-----3-------3-3-----3----|
G -----------------------------------|
D --0-0-----0-0-----0-0-----0-0------|
A -----------------------------------|
E -----------------------------------|

Intro:

e -----------------------------------| 
B ----3-2---0-----------3-2---0------|
G --------2-----2-----------2--------| (X 2)
D --0---------4-------0---------4----|
A -----------------------------------|
E -----------------------------------|

D
Drinking in the morning sun
G
Blinking in the morning sun 
A
Shaking off the heavy one 
       G
Yeah, heavy like a loaded gun

D
What made me behave that way
G 
Using words I never say 

I can only think it must be love 

Oh, anyway 
                              Riff
It's looking like a beautiful day 

D
Someone te
>> Registreer, speel & download <<
Meld nu aan en speel de rest van Elbow - One Day Like This

>> Registreer, speel & download <<
ll me how I feel 
G
It's silly wrong but vivid right 

Oh, kiss me like the final meal 
       
Yeah, kiss me like we die tonight 

D
Cause holy cow I love your eyes 
G
And only now I see the light 

Yeah Lying with me half-awake 

Oh, anyway 
                              Riff
It's looking like a beautiful day 
D
When my face is chamois-creased 
G
If you think I'll wink, I did 
A
Laugh politely at repeats 
       G 
Yeah, kiss me when my lips are thin 

D
Cause holy cow I love your eyes 
G
And only now I see you like 

Yeah, lying with me half-awake 

Stumbling over what to say 

Well, anyway 
                              Riff
It's looking like a beautiful day 

     D                   C
So throw those curtains wide
     G                               D
One day like this a year had see me right... 

More info