• Streaming gitaar liedjes spelen
  • Leer gitaar spelen & gitaarlessen
  • 80.000 leden
Titel:  	Something About You
Artiest: 	Frederique Spigt en Sarah Bettens
Album 	     Mans genoeg

Capo: 1	
Tuning: E-A-D-G-B-E

Uitgezocht door: Dylan

Soort: CRD

Frederique Spigt en Sarah Bettens - Something about You 
--------------------------------------

Chords
------
D      =		x57775
D-     =		x07775
Bm7 =	             x24232
Bm7-=	             x02432
G      =		3554xx
G-     =		2554xx 


Riff 1:
    D                 D- 
E|--------------------------------------
B|--------------------------------------
G|------0--------0--------0--------0----
D|----7---7----7---7----7---7----7---7--
A|--5--------5--------0-------0---------
E|--------------------------------------
    Bm7               Bm7- 
E|--------------------------------------
B|--------------------------------------
G|------0--------0--------0--------0----
D|----4---4----4---4----4---4----4---4--
A|--2--------2--------0-------0---------
E|--------------------------------------

Riff 2: 

E|--------------------------------------
B|--------------------------------------
G|--------------------------------------
>> Registreer, speel & download <<
Meld nu aan en speel de rest van Frederique Spigt - Something About You

>> Registreer, speel & download <<
D|-----0--------0-------0---------0-----
A|---5---5----5---5---5---5-----5-------
E|-2--------2-------3--------3----------

E|--------------------------------------
B|--------------------------------------
G|------0-------0--------0---------0----
D|----5---5---5---5----5---5-----5---5--
A|--2-------2--------3--------3---------
E|--------------------------------------

Riff 1 ( Intro) 

Riff 1 (Repeat 2x) 

We could watch from the side 
We could comment on the world as it floats by
Applaus the things we know 
Condem the soul that wants to grow
I just want to go with what was already inside

Riff 1 + Riff 2  

I think i know
Something about you
You need someone just like me
Someone just like me to be with you 

Riff 1 

Look at what you have to give
You owe it to the ones who never get to love the life
I see for you and me 
Love is all we really need
You make it fun to be this consciously naive

Refrein

Riff 1 

Don’t think i’m not afraid
But nothing scares me more than losing you
This is the song where i can finally, totally
Give myself to you 

Refrein 


*Succes!*

More info