• Streaming gitaar liedjes spelen
  • Leer gitaar spelen & gitaarlessen
  • 80.000 leden
Angel

Chords:
Am      - x02210       Em      - 022000
Asus2   - x02200       Em(VII) - 075000
G       - 320003       C       - x32010
D       - xx0232       Fsus2   - xx3011
Dsus2   - xx0230       Fmaj7   - xx3210

Intro:
|Am  Asus2|     |Am  Asus2|G        |D   Dsus2 |Em D  |Em D  |Em D  |    |    |
       Who       Oh        fly Angel fly        An-gel An-gel An-gel

|Em(VII) |     |     |     |

Verse:
Em(VII)
One time I didn't know what to do; I had a problem with my attitude
         Bm7                        G         Em         G          Em
'Cause I never had, I never had the young man blues, the blues before

Em(VII)
Well I know it means none to you; ev'ry man's gotta walk in his own shoes
           Bm7                            G   Em   G  Em
And it ain't that hard, sure is hard to see

D                      Em
Straight  from the heart

Can't find nothing on my shopping list
I only keep hammering the nail I miss
I just cannot help believing that heaven is a hard-on

Well I know it don't mean a damn to you
The left hand guessing what the right'll do
Now ain't that - ain't that the way it is as a matter of fact

Straight  from the heart

Chorus:
         C                         Am
Well I'm floating like a swan on a waterbed
    G                       D
I'm drowning in a pond in a pool of regret
C                      Am
Trying to remember not to forget
>> Registreer, speel & download <<
Meld nu aan en speel de rest van Golden Earring - Angel

>> Registreer, speel & download <<
        G                       Fsus2          Fmaj7
How you bring me down with your kiss of death
D  Em   D  Em   D  Em   D        Em
An-gel, An-gel, An-gel, An-gel

Entertaining all the gods for you
Buddah and Jesus and the other one too
Now ain't that, ain't that like apple juice; forbidden fruit

Moon jump flying back to the sun
Cool burn visible for everyone and the blood flows
Don't you know all though your body and back to your soul

Straight  from the heart

Chorus

Solo

Chorus

Solo
 Bm               Em                    A                 Bm
e--14--12-14--15-|-(15)-14--12---------|-----------------|----------|
B----------------|--------------15--14-|-(14)--12-14--15-|-(15)-----|
G----------------|---------------------|-----------------|----------|
D----------------|---------------------|-----------------|----------|
A----------------|---------------------|-----------------|----------|
E----------------|---------------------|-----------------|----------|

e--19--19-19--|-19--17-15--14-----|---------------|---------|-19----|
B-------------|----------------15-|-17--15-17--19-|-(19)----|-------|
G-------------|-------------------|---------------|---------|-------|
D-------------|-------------------|---------------|---------|-------|
A-------------|-------------------|---------------|---------|-------|
E-------------|-------------------|---------------|---------|-------|

More info