• Streaming gitaar liedjes spelen
  • Leer gitaar spelen & gitaarlessen
  • 80.000 leden
Back Home  

Standard tuning.

                 +----------------  +-------
                 |1, 2, 3, 4, 5     |6
    Intro: |: A   C/A           :|   C/A   D

                      A       C/A
                  e --5--    -----
                  B --5--    --5--
                  G --6--    --5--
                  D --7--    --5--
                  A --7--    --0--
                  E --5--    -----

    A                                    D   A
    Goin' back right through the cities
    A                                      D   A
    through the country, rivers so pretty
    A                                      D   A
    People wonder why I'm going back home
    A
    Just the place where I belong
         D     Dsus4   D             Dsus4   D
    Back home,            back home,           yeah
         A                D    A
    Back home,            back home

    e||------------------------------------------------------------------||
    B||---------------------------10------------8---------------7--------||
    G||-----------6--------5------11------------9---------------7--------||
    D||--/7-7--9-----9--7------------------------------------------------||
    A||------------------------------------------------------------------||
    E||------------------------------------------------------------------||
                                     Well I'm a round the world rambler

    e||-----------------------------||
    B||--8---------7-------5--------||
    G||--9---------7-------6--------||
    D||-----------------------------||
    A||-----------------------------||
    E||-----------------------------||
            Just a fortune gambler

   E            D               A
    It's always good to be back home

    Well I'm a round the world rambler
    Just a fortune gambler
    It's always good to be back home

    'round and 'round, the world goes 'round
    Got my friends in every town
    From border to border, every place I've been
    but I've gotta be back
    if you know what I mean

    Back home, back home
    Back home, back home

    Well I'm a round the world rambler
    just a fortune gambler
    It's always good to be back home

    Well I'm a round the world rambler
    just a fortune gambler
    It's always good to be back home

Solo:
    e||----------------------------------------------------------------------|
    B||-------------------------------------------------------
>> Registreer, speel & download <<
Meld nu aan en speel de rest van Golden Earring - Back Home

>> Registreer, speel & download <<
---------------|
    G||--/2-0-------------------------------/2-0-----------------------------|
    D||-------2p0---2--2-2---2--2-2-----2--------2p0---2--2-2---2--2-2-------|
    A||-----------3-0--0-0---0--0-0---0-3------------3-0--0-0---0--0-0-------|
    E||--------------------3--------3-------------------------3--------0--3--|

    e||----------------------------------------------------------------------|
    B||----------------------------------------------------------------------|
    G||--/2-0-------------------------------/2-0-----------------------------|
    D||-------2p0---2--2-2---2--2-2-----2--------2p0---2--2-2---2--2-2-------|
    A||-----------3-0--0-0---0--0-0---0-3------------3-0--0-0---0--0-0-------|
    E||--------------------3--------3-------------------------3--------0--3--|

    e||----------------------------------------------------------------------|
    B||----------------------------------------------------------------------|
    G||--/7-5-------------------------------/7-5-----------------------------|
    D||-------7p5---7--7-7---7--7-7-----7--------7p5---7--7-7---7--7-7-------|
    A||-----------8-5--5-5---5--5-5---5-8------------8-5--5-5---5--5-5-------|
    E||--------------------8--------8-------------------------8--------5--8--|

    e||----------------------------------------------------------------------|
    B||----------------------------------------------------------------------|
    G||--/2-0-------------------------------/2-0-----------------------------|
    D||-------2p0---2--2-2---2--2-2-----2--------2p0---2--2-2---2--2-2-------|
    A||-----------3-0--0-0---0--0-0---0-3------------3-0--0-0---0--0-0-------|
    E||--------------------3--------3-------------------------3--------0--3--|

    e||---------------------------------------------------------------------|
    B||--------------5--------------2-------------------5--------------2----|
    G||--/2-0--------5--------------2-------/2-0--------5--------------2----|
    D||-------2p0----5--------------2------------2p0----5--------------2----|
    A||-----------3--3--------------0----------------3--3--------------0----|
    E||---------------------------------------------------------------------|

    e||--------------------------------||
    B||--------------5--------------2--||
    G||--/2-0--------5--------------2--||
    D||-------2p0----5--------------2--||
    A||-----------3--3--------------0--||
    E||--------------------------------||  

More info

Comments Golden Earring - Back Home - chords

Seb-astiaan-9

Seb-astiaan-9 2010-10-14

hoi, ik moet dit liedje voor elektrische gitaar-les doen.