• Streaming gitaar liedjes spelen
  • Leer gitaar spelen & gitaarlessen
  • 75.000 leden
Back Home  

Standard tuning.

                 +----------------  +-------
                 |1, 2, 3, 4, 5     |6
    Intro: |: A   C/A           :|   C/A   D

                      A       C/A
                  e --5--    -----
                  B --5--    --5--
                  G --6--    --5--
                  D --7--    --5--
                  A --7--    --0--
                  E --5--    -----

    A                                    D   A
    Goin' back right through the cities
    A                                      D   A
    through the country, rivers so pretty
    A                                      D   A
    People wonder why I'm going back home
    A
    Just the place where I belong
         D     Dsus4   D             Dsus4   D
    Back home,            back home,           yeah
         A                D    A
    Back home,            back home

    e||------------------------------------------------------------------||
    B||---------------------------10------------8---------------7--------||
    G||-----------6--------5------11------------9---------------7--------||
    D||--/7-7--9-----9--7------------------------------------------------||
    A||------------------------------------------------------------------||
    E||------------------------------------------------------------------||
                                     Well I'm a round the world rambler

    e||-----------------------------||
    B||--8---------7-------5--------||
    G||--9---------7-------6--------||
    D||-----------------------------||
    A||-----------------------------||
    E||----------------------
De rest van dit nummer alleen voor Gitaartabs leden! Maak gratis Gitaartabs account aan . 
Gitaar Tabs

Download, print en speel de Chord ♪ Golden Earring - Back Home

Meld je aan en print, download of speel binnen 15 sec mee Chord ♫ Golden Earring - Back Home.
Reeds 70.000 gitaristen zijn je voorgegaan.

Gratis Aanmelden Gitaartabs

Artiesten

Golden Earring

Song information

Naam: Back Home
Album:
Notatie: Chord (CRD)
Category: Pop
Niveau:

Statistiek

Downloads: 15.757
Commentaren: 1 Comment

Credits

Geplaat door: JanH
Geschreven door: Gitaartabs
Datum: 2006-10-22

Comments Golden Earring - Back Home - chords

Seb-astiaan-9

Seb-astiaan-9 2010-10-14

hoi, ik moet dit liedje voor elektrische gitaar-les doen.