• Streaming gitaar liedjes spelen
  • Leer gitaar spelen & gitaarlessen
  • 80.000 leden
 Eight Miles High 

12-string lead INTRO
                                                                        

E--------------------|--------------------|--------------------|---------|
B--------------------|--------------------|--------------------|---------|
G---7------4---------|--7--------4--------|--------------------|---------|
D--------------5--7--|-------------5---7--|-5-4--4-------------|---------|
A--------------------|--------------------|-----7--5--7-5-4-5--|---------|
E--------------------|--------------------|------------------7-|-5----7--|

   Em    F#m   G    D                  C
   Eight miles high and when you touch-down
   G                     D             C       C6  C  C6
   You'll find that it's stranger than known
   Em    F#m    G      D                     C  
   Signs in the street that say where you're going
   G             D                C      C6  C  C6
   Are somewhere just being their own

   Em  F#m7  Em  F#m7

   Em F#m7  G  D                  C
   No-where is there warmth to be f
>> Registreer, speel & download <<
Meld nu aan en speel de rest van Golden Earring - Eight Miles High

>> Registreer, speel & download <<
ound
   G            D                     C       C6  C  C6
   among those afraid of losing their ground
   Em   F#m7 G    D             C
   Rain grey town known for its sound
   G         D             C      C6  C  C6
   In places small faces unbound

E--------------------|--------------------|--------------------|---------|
B--------------------|--------------------|--------------------|---------|
G---7------4---------|--7--------4--------|--------------------|---------|
D--------------5--7--|-------------5---7--|-5-4--4-------------|---------|
A--------------------|--------------------|-----7--5--7-5-4-5--|---------|
E--------------------|--------------------|------------------7-|-5----7--|

   Em    F#m7 G        D          C
   Round the  squares, huddled in storms
   G             D                   C      C6  C  C6
   Some laughing some just shapeless forms
   Em  F#m7 G      D              C
   Sidewalk scenes and black limousines
   G            D              C     C6  C  C6
   Some leaving some standing alone

More info