• Streaming gitaar liedjes spelen
  • Leer gitaar spelen & gitaarlessen
  • 80.000 leden
Hold Me Now 

Chords:
Em     - 0x2000      Bm    - x24432
F#m    - 2x4200      F#    - 244322
G      - 3x0003      F#+   - xx4332
D      - xx0232      Gmaj7 - xx5432
A      - x02220      G6    - xx5430
Asus4  - x02230      A7    - x02223
G(III) - 355433      A6    - x02222

Intro (2x):
 Em                F#m
e---------0-------|---------0-------|
B-------0---------|-------0---------|
G-----0-------0---|-----2-------2---|
D---2-------2---2-|---4-------4---4-|
A-----------------|-----------------|
E-0---------------|-2---------------|

Verse:
Em                   F#m      G                  D
Dreaming 'bout the future and drinking on the past
G                        F#m             A    Asus4   A  (G)  (F#)
Thinking 'bout the things that been forgotten
Em             F#m     G            D
Trying to remember and trying to forget
G                 F#m           A
That my life is empty without you

A   G(III)
Sayonara
              Bm
Close your eyes now little girl
         G(III)
'Cause tomorrow
       F#                   F#+
Hides a whole different world

Chorus 1:
Gmaj7     G6
Hold me now
          Asus4                   A
You gotta guide me through the night
Gmaj7     G6
Hold me now
        A7       A6    A    D
Make my ice cold blood turn warm

Talking 'bout our friends in love
Our friends with broken hearts
The ones I always keep forgiving
Have funny angel shy a poisoned parted dog (??)
Tonight I wanna keep on living

For your love
Close your eyes now little girl
'Cause tomorrow's
Hiding a whole different world

Chorus 2:
Gmaj7     G6
Hold me now
          Asus4                   A
You gotta guide me through the night
Gmaj7
Hold me now
    A7               A6  A
And make it last for-e - ver
Gmaj7     G6
Hold me now
      Asus4               A
Be my guide just for a while
Gmaj7     G6         A7       A6    A    D
Hold me now; make my ic
>> Registreer, speel & download <<
Meld nu aan en speel de rest van Golden Earring - Hold Me Now

>> Registreer, speel & download <<
e cold blood turn warm

Interlude
Repeat Chorus 2
Repeat Interlude

Interlude:
   D              D7             Em
e-----5--5------|----5--5----0-|--------------|-----0--------|
B-----7--7----7-|----7--7------|--------------|--------0-----|
G-----7--7--7---|-5--------5---|--------------|-----------0--|
D--0------------|--------------|-----5--5--7--|-9------------|
A---------------|--------------|-----7--7--9--|-10-----------|
E---------------|--------------|--0-----------|--------------|

  A7              A6     A        D
e---------------|---------------|-------------|--5-----------|
B---------------|---------------|-------7-----|--------------|
G-----12--12----|-11-----9------|----7-----7--|--------------|
D-----11--11----|-11-----11-----|-0-----------|--------------|
A--0----------0-|-----0------0--|-------------|--------------|
E---------------|---------------|-------------|--------------|

Solo:
  D                                   E             E7
e---------------|-------------------|-------------|--------------------|
B---------------|-------------------|-------------|--------------------|
G---------------|-------------------|-------------|--------------------|
D------------7--|-7-7---------------|---------6-7-|-6------------------|
A--5---5-7-9----|-------------5-7-5-|-9--7--------|--------------------|
E---------------|------4--5-7-------|-------------|--------------------|

  Em7                                    F#                F#+
e---------------------|----------------|-10-7--9--9--7-9-|-10--9--7--6-|
B-------------------7-|-8--8-10-10--10-|-----------------|-------------|
G----------7-7--7-9---|----------------|-----------------|-------------|
D----5-7-9------------|----------------|-----------------|-------------|
A--7------------------|----------------|-----------------|-------------|
E---------------------|----------------|-----------------|-------------|

More info