• Streaming gitaar liedjes spelen
  • Leer gitaar spelen & gitaarlessen
  • 80.000 leden
Riff 1:
E|-----------------|-----------------|
A|-----------------|-----------------|
D|-----------------|-----------------|
G|-----------------|-----------------|
B|-----------------|-5---5-3-5-3-----|
E|-5-3-5-3-5---3-0-|-------------5-3-|


Riff 2:
E|-----------------|-----------------|
A|-----------------|-----------------|
D|-----------------|-----------------|
G|-----------------|-----------------|
B|-----------------|-5---5-3-5-3-5-7-|
E|-5-3-5-3-5---3-0-|-----------------|

Riff 1   4X

In (A)bad times when it’s (D)dark and cold
You (A)got no place to (D)rest your soul
There’s (A)laughter be(D)hind your backs
Then it (E)seems the devil rules the deck

(A)Nothin’ seems (D)easy these days
Or (A)do I see it in a (D)different way
The (A)world is spinnin’, well (D)that’s OK
(E)Tell me baby what’s the price we pay

(G)Holy holy (D)life, sometimes is (A)lonely
(G)Holy holy (D)life, sometimes is (A)sad
(G)Holy holy (D)life, sometimes is (A)phony
(A)The sooner or later, (E)they’ll find you (D)dead

Riff 1   4X

Why don’t you (A)take me down to a (D)rabbit hole
Where a (A)man of peace can (D)hide his soul
(A)Thinkin’ about pollution and a (D)birth-control
Better (E)talk to the rabbits, it’s somebody's fault

Or (A)maybe sometimes I’m (D)
>> Registreer, speel & download <<
Meld nu aan en speel de rest van Golden Earring - Holy Holy Life

>> Registreer, speel & download <<
pessimistic
and (A)maybe it ain’t so bad, it (D)ain’t so sick
I (A)know I’m not the man of (D)constant sorrow
and (E)tell me is it the path of evil to follow

(G)Holy holy (D)life, sometimes is (A)lonely
(G)Holy holy (D)life, sometimes is (A)sad
(G)Holy holy (D)life, sometimes is (A)phony
(A)The sooner or later, (E)they’ll find you (D)dead

(G)Holy holy (D)life, sometimes is (A)lonely
(G)Holy holy (D)life, sometimes is (A)sad

(G)Holy holy (D)life, sometimes is (A)lonely
(G)Holy holy (D)life, sometimes is (A)sad

(G)Holy holy (D)life, sometimes is (A)lonely
(G)Holy holy (D)life, sometimes is (A)sad

(G)Holy holy (D)life, sometimes is (A)lonely
sometimes is (D)phony, sometimes is (A)sad

(G)Holy holy (D)life, sometimes is (A)lonely
sometimes is (D)phony, sometimes is (A)sad

(G)Holy holy (D)life, sometimes is (A)lonely
sometimes is (D)phony, sometimes is (A)sad

Repeat Riff 3 till the end, than end with the D chord

Holy, holy, holy


Riff 3:
E|-------2---------|-----------------|
A|-----3-----3---3-|-----3-----3---3-|
D|---2---------2---|---2-----0-----0-|
G|-0---------------|-----------------|
B|-----------------|-3-----2---------|
E|-----------------|-------------3---|

A:      X02220
D:      XX0232
E:      022100
E(VII): 079997
G:      320033

More info