• Streaming gitaar liedjes spelen
  • Leer gitaar spelen & gitaarlessen
  • 80.000 leden
Johnny Make Believe

Tune down one step (DGCFAd)

Chords:
Em - 075000     F  - 133211      D  - xx0232
G  - 320003     C  - x32010      D7 - xx0212
Am - x02210     Bm - 244322      G7 - 320001

Intro:
  Em               G              Em                 G
d----------------|-----3--------|------------------|-----3--------|
A----8---7-5-5---|--------------|------8---7-5-----|--------------|
F----0---0-0-0-0-|---0------0---|----------------0-|---0------0---|
C----------------|-0------0---0-|--------------0---|-0------0---0-|
G----------------|--------------|-/7-----7---------|--------------|
D--0---0---------|-3------------|----0-------------|-3------------|

  Em                 Am               Fsus2           C
d------------------|----------------|---------------|----------0-0-0-|
A------8---7-5-----|-------0-1------|-------1-------|-------1--1-1-1-|
F----------------0-|-----2-------2--|-----0---------|-----0----0-0-0-|
C--------------0---|---2-------2----|---3-------3-0-|---2------2-2-2-|
G-/7-----7---------|-0--------------|---------------|-3--------3-3-3-|
D----0-------------|----------------|-1-------------|----------------|

Verse:
Em              G
Waitress more wine
Em        G
We celebrate
Em        
>> Registreer, speel & download <<
Meld nu aan en speel de rest van Golden Earring - Johnny Make Believe

>> Registreer, speel & download <<
      Am
The life and times
   F            C
Of Johnny makes believe

He was the greatest liar
Of all man kind
The biggest drunk
You ever saw alive

Bridge 1:
Bm       C
He was a devil
Bm       C
Undisguise
Em(I)      Bm                 D
He will be sorely missed tonight

Verse:
[D]          G
And the next day
Will never be the same
Without the beautiful Johnny Make Believe

So let's get high
Laugh till we cry
Always remember his last words

Farewell cruel world
All you pretty girls
Don't send me flowers
Hold me in your dreams

Bridge 1:
And then the spirit
In the bottle
Took our Johnny for a ride

Bridge 2:
D7      G
Come on waitress
G7          C
Pour's more wine
D7           G
To drown our grief
D7                G
For Johnny Make Believe

Repeat Intro (2x)

Verse:
Tatooed my heart
Branded my soul
(He said:) Go for true love
Not for the fool's gold, yeah

So let's get high
Laugh 'till we cry
Don't send me flowers
Hold me in your dreams

Bridge 1:
Yeah, and then the spirit
In the bottle
Took our Johnny for a ride

Bridge 2:
And then the spirit
In the bottle
Took our Johnny for a ride

Verse (repeat to fade):
laalalaalaaa
laalalaalaaa
laalalaalaalaaa
lalalalaalaaa

More info