• Streaming gitaar liedjes spelen
  • Leer gitaar spelen & gitaarlessen
  • 80.000 leden
Liquid Soul


D-Tuning

|------------------------------|--------------------------|
|------------------------------|--------------------------|
|------------------------------|--------------------------|  play
|-------------------3---5---3--|------------------3-------|   4x
|--------------3-5----5---5----|--------------0-5---5--5--|
|--0--2--3--5------------------|--0--2--3--5--------------|

   F   D                             F   G      D
|--3---0--------------------------|--3---5--5---0-------------|
|--3---0--------------------------|--3---5--5---0-------------|
|--3---0--------------------------|--3---5--5---0-------------|
|--3---0--------------------------|--3---5--5---0-------------|
|--3---5-------------5---5--5--5--|--3---5--5---5---5---5--5--|
|--3---0----0--0--0--0---0--0--0--|--3---5--5---0---0---0--0--|

F    D                 F G    D
Went down       to the liquor store
F   D                 F  G   D
Had enough      but I needed more
F    D        F   G    D
Give me     a six-pack
      F  D    F G   D
I got money,  I got cash here

|--------------------|----------------------|
|--------------------|----------------------|
|--------------------|----------------------|
|--7---9--9---10--10-|--10--12--12--14--14--|
|--5---7--7---8---8--|--8---10--10--12--12--|
|--------------------|----------------------|
   Take my life          break the seal

|--------------------|------------------|
|--------------------|------------------|
|--------------------|------------------|
|--7---9--9---10--10-|--10--7--7--7--7--|
|--5---7--7---8---8--|--8---5--5--5--5--|
|--------------------|------------------|
   Take my knife         cut the waiting

|--------------------|----------------------|
|--------------------|----------------------|
|--------------------|----------------------|
|--7---9--9---10--10-|--10--12--12--14--14--|
|--5---7--7---8---8--|--8---10--10--12--12--|
|--------------------|----------------------|
   Say the word          no hesitating

|--------------------|---------------------------------|
|--------------------|---------------------------------|
|--------------------|---------------------------------|
|--7---9--9---10--10-|--12--12---14-14-14-14-14-14-14--|
|--5---7--7---8---8--|--10--10---12-12-12-12-12-12
>> Registreer, speel & download <<
Meld nu aan en speel de rest van Golden Earring - Liquid Soul

>> Registreer, speel & download <<
-12--|
|--------------------|---------------------------------|
   Can't you see that I'm hungry

Chorus:
D                 C       G               F
I've been a dirty liar    No cold hearted diplomat
D             C           G           F
And I keep on trying      Trying hard to Forget
D              C          G        F
I used to be a coward     No Clark Gable

Bb                        C
No sticks of dynamite     No funky fire sign
Bb
The river is running dry   You'll never capture

it's Liquid Soul

|------------------------------|---------------------------|
|------------------------------|---------------------------|
|------------------------------|---------------------------|  play
|-------------------3---5---3--|------------------(3)------|   2x
|--------------3-5----5---5----|--------------3-5----5--5--|
|--0--2--3--5------------------|--0--2--3--5---------------|

daylight   I'm angry       Lonely
But I found    Something   solid gold   on this   endless road
I like the glow    when the fire  turns to coal
And I see your mystery   send me on my way

Sometimes I wander
Sometimes I leave for good
Livin' up my fantasy  Livin' in a world like you

D                   C        G          F
She asked me do you love me  I answered I don't know
D                   C        G     F
She asked me do you love me  Yes I love you girl
Bb                    C
Givin' up my freedom  Givin' up my fantasy

I'm giving up

|------------------------------|---------------------------|
|------------------------------|---------------------------|
|------------------------------|---------------------------|
|-------------------3---5---3--|------------------(3)------|
|--------------3-5----5---5----|--------------3-5----5--5--|
|--0--2--3--5------------------|--0--2--3--5---------------|

Bassolo

Go go

D            C       G           F
sometimes prisoner   sometimes I feel free
D              C           G            F
I'm livin' up  livin' up   livin' up my fantasy
D                C         G                    F
Already know the answer    Information plain to see

Through the muddy water
Bb                      C
no sticks of dynamite   No need for sacrifice
Db
this river ain't runnin' dry   You'll never capture

It's liquid soul

More info