• Streaming gitaar liedjes spelen
  • Leer gitaar spelen & gitaarlessen
  • 80.000 leden
She Flies On Strange Wings 


Chords:  EADGBe      EADGBe
F#m7/11  244200   D  xx0232
B        224442   C# x46664
A        x02220

     Riff 1:
    e||--------------------2---2--2--2---||
    B||*-------------------2---2--2--2--*||
    G||--------------------2---2--2--2---||
    D||----------------------------------||
    A||*--------------------------------*||
    E||---2--0--2--0--2--0---------------||

    Intro:  F#m7/11

    F#m7/11                     B
    Lonely is the night without you
            A                       B
    Just as lonely as a shepherd without sheep
        F#m7/11
    and where flies the falcon,
           B
    in the high sweet air
            A                             B       (Tacet)
    Without hunting in the Sprane Valleys deer

    --> Play Riff 1 during this verse
    She wears softness as a gown
    She spreads magic all around
    Her feathers still untouched
    She takes but nothing and she gives so much

    Chorus:
    B   A        (Riff 1)
    She flies on strange wings
    B   A        (Riff 1)
    She flies on strange wings

    --> Play Riff 1 during this verse
    She takes off when she desires
    Silence grows on her lips
    She can take you so much higher
    She spreads love on all her trips, yeah

    Chorus:
    B   A        (Riff 1)
    She flies on strange wings
    B   A        (Riff 1)
    She flies on strange wings, strange wings!

    F#m7/11    E    B   (8X)

    Improvise with the F#m7/11 a couple of bars.... Example:

    e||----------0---------------0---------------0---------------0----------||
    B||--------0---0-----------0---0-----------0---0-----------0---0--------||
    G||------2-------2-------2-------2-------2-------2-------2-------2------||
    A||----4-----------4---2-----------2---4-----------4---2-----------2----||
    D||
>> Registreer, speel & download <<
Meld nu aan en speel de rest van Golden Earring - She Flies On Strange Wings

>> Registreer, speel & download <<
---------------------------------------------------------------------||
    E||--2---------------0---------------2---------------0------------------||

    e||--------2-------2------2------2-------2-------2-------2-------2------||
    B||------5-------5------4------4-------4-------4-------5-------5--------||
    G||----2-------2------2------2-------2-------2-------2-------2----------||
    D||--4-------4------4------4-------4-------4-------4-------4------------||
    A||---------------------------------------------------------------------||
    E||---------------------------------------------------------------------||

    A    B    F#m7/11    A    B    F#m7/11    D    C#    B    A  Asus4

    F#m7/11

    F#m7/11
    Woke up this morning
             A                  B
    and this feeling came to my head
    F#m7/11
    To fly with her from sky to sky
              A                 B
    'Cause my mind seemed to be dead

    F#m7/11
    So I floated up towards her
          D
    on my mutilated wings
       C#
    But all the blackness sings against me now
    B
    It's the lady of the strange wings
    A
    It's the lady of the strange wings
    C#
    It's the lady of the strange wings
    D       B      A                C#                  (Riff 1)
    Oohhhh         strange wings    strange wings

    --> Play Riff 1 during this verse
    She wears softness as a gown
    She spreads magic all around
    Her feathers still untouched
    She takes but nothing and she gives so much

    Chorus:
    B   A        (Riff 1)
    She flies on strange wings, strange wings!
    B   A        (Riff 1)
    She flies on strange wings, strange wings!
    B   A        (Riff 1)
    She brings strange things
    B   A        (Riff 1)
    She flies on strange wings

    F#m7/11    E    B   (8X)

    Ending: F#m7/11

More info