• Streaming gitaar liedjes spelen
  • Leer gitaar spelen & gitaarlessen
  • 80.000 leden
Twilight Zone

Intro:

|-----------------------------|----------------------------|---------------------|
|-----------------------------|----------------------------|---------------------|
|-----------------------------|----------------------------|---------------------|
|----0--2--0-----0--2-(2)-0---|----0--2--0-----0--2-(2)-0--|------2--0--(0)-2--0-|
|-2-----------2---------------|-2-----------2--------------|----2----------------|
|-----------------------------|----------------------------|-0---------0---------|

|---------------------|------------------|-------------------|-------------------|
|---------------------|------------------|-------------------|-------------------|
|---------------------|----2-------2(2)--|-----2-------2(2)--|-------------------|
|-----2--0--(0)2(2)-0-|--4---4---4-----4-|---4---4---4-----0-|--0--2--0--0--2--0-|
|---2-----------------|------------------|-------------------|-2-------2---------|
|-0--------0----------|-2------2---------|-2-------2---------|-------------------|

|----------------|
|----------------|
|----------------|
|----0--2--0-----|
|-2-----------2--|
|----------------|

Somewhere in a lonely hotel room there's a guy starting to realise
That hiss eternal fate has turned his back on him
It's 2 am

Bm                                    Em7        
It's 2 A.M.,  The fear has gone.  I'm sitting here  waiting  the gun still warm
F#m                                    Bm
Maybe my connection is tires of taking chances.   (Barry)  Yeah, there's a storm
                                      Em
On the loose,   sirenes in my head    wrapped up in silence  all circuits are dead
F#m                                       Bm
Cannot decode  my whole life spins into a frenzy

Refrain:
         Bm                                                  A
(George) Help,  I'm stepping into the twilight zone  (Barry) place is a madhouse
                            G
feels like being cloned. My beacon's been moved under moon and star  (George)
F#                                                     Bm
Where am I to go  now that I've gone too far   yeah    Help,   I'm stepping into 
                           A
the twilight zone
>> Registreer, speel & download <<
Meld nu aan en speel de rest van Golden Earring - Twilight Zone

>> Registreer, speel & download <<
  (Barry) place  is a madhouse  feels like being cloned  my 
G                                                 F#
beacon's been moved under moon and star  (George) Where am I to go  new that I've 
                                  G               Em
gone too far  (Barry) Soon you'll come to know            When the bullet hits the 

     Bm             G             Em
bone    Soon you'll come to know      When the bullet hits the bone


Refrain

Bm
I'm falling down a spiral  destination  unknown
Em7
Double crossed messenger  all alone
F#m                                                   Bm
Can't get no connection,  can't get through where are you

Well the night weights heavy in his guilty mind
Em
This far from the border line and when the hitman comes
F#m                                            Bm
He knows damn well he has been cheated  and he says:

Refrain 

Em
When the bullet hits the bone


(Played continue throughout solo)
|------------------------|
|------------------------|
|------------------------|
|----0--2--0----0--2(2)--|
|-2-----------2----------|
|------------------------|

Guitar solo


Refrain:
         Bm                                                  A
(George) Help,  I'm stepping into the twilight zone  (Barry) place is a madhouse
                           G
feels like being cloned My beacon's been moved under moon and star  (George)
F#                                                     Bm
Where am I to go  now that I've gone too far   yeah    Help,   I'm stepping into
                           A
the twilight zone  (Barry) place  is a madhouse  feels like being cloned  my 
G                                                 F#
beacon's been moved under moon and star  (George) Where am I to go  new that I've 
                                  G               Em
gone too far  (Barry) Soon you'll come to know            When the bullet hits the 

     Bm             G             Em
bone    Soon you'll come to know      When the bullet hits the bone


Bm     G             Em           Bm
Ho ho  ho ho ho  ho  ho ho  ho ho ho   ho ho ho
G         Em           Bm
Ho ho ho  ho ho ho ho  wo wo wo wo  wo wo wo

More info