• Streaming gitaar liedjes spelen
  • Leer gitaar spelen & gitaarlessen
  • 80.000 leden
Weekend Love 


Chords used:
D   054000
G   5x5555
A   7x7777

Intro: (D-Tuning)

|----------|---------------------------------|---------------------------------|
|----------|---------------------------------|---------------------------------|
|----------|---------------------------------|---------------------------------|
|-----0----|-----------------------------0---|-----------------------------0---|
|-0-2---2--|-------------------------0-2---2-|-------------------------0-2---2-|
|----------|-0-0-0-0-0-0-0-0-0-0-0-0---------|-0-0-0-0-0-0-0-0-0-0-0-0---------|

|---------------------------------|---------------------------------|
|---------------------------------|---------------------------------|
|---------------------------------|---------------------------------|
|-----------------------------0---|---------------------------------|
|-------------------------0-2---2-|---------------------------------|
|-0-0-0-0-0-0-0-0-0-0-0-0---------|-0-0-0-0-0-0-0-0-0-0-0-0-0-0-0-0-|

D

D
The sooner it will be the better

Gonna have to see her right away

It's been a long time since the day 
>> Registreer, speel & download <<
Meld nu aan en speel de rest van Golden Earring - Weekend Love

>> Registreer, speel & download <<
I met her

Well I can't handle being without her one more day
    G                                      D
Now honey I get the feeling that I'm going insane Yeah
G
I feel so stupid using these old cliche's
D          A
You better hurry up baby I ain't lying 
           G
We're down to nothing but a waste of time
A
Still remember ev'rything she said
    G
And make no promises and make no debts

D
All I want is just a one day weekend love

D
She sips her wine without a flinching
(She sips her wine without a flinching)

She's in control of it all the way
(She's in control of it all the way
G                                   D
Looks so good pretending that she's listening
       G                                D
By the time I fall asleep she's gone away  Yeah
      A
She's got no mercy on a jealous heart 
        G
and she said it all right from the start.
A
Make no promise and make no debts
      G
But I love that lady I got to confess

D
I want more than just a one day weekend love

Al she wants is just my one day weekend love

I want more than just a one day weekend love

More info