• Streaming gitaar liedjes spelen
  • Leer gitaar spelen & gitaarlessen
  • 75.000 leden
intro   play 2X
E-----------------------------------------------------------------
B-----------------------------------------------------------------
G-------7-------7-------7-------x-------5-------5-------5-------x-
D-------7-------7-------7-------x-------5-------5-------5-------x-
A-------5-------5-------5-------x-------3-------3-------3-------x-
E-----------------------------------------------------------------
        p.m.----- (palm mute)           p.m.-----

E-----------------------------------------------------------------
B-----------------------------------------------------------------
G-------7-------7-------7-------x-------5-------5-------5-------x-
D-------7-------7-------7-------x-------5-------5-------5-------x-
A-------5-------5-------5-------x-------3-------3-------3-------x-
E
        p.m.-----                       p.m.-----

E-----------------------------------------------------------------
B-----------------------------------------------------------------
G-------7-------7-------7-------x-------5-------5-------5-------x-
D-------7-------7-------7-------x-------5-------5-------5-------x-
A-------5-------5-------5-------x-------3-------3-------3-------x-
E-----------------------------------------------------------------
        p.m.--------                    p.m.-----

                  
De rest van dit nummer alleen voor Gitaartabs leden! Maak gratis Gitaartabs account aan . 
Gitaar Tabs

Download, print en speel de Chord ♪ Green Day - At The Library

Meld je aan en print, download of speel binnen 15 sec mee Chord ♫ Green Day - At The Library.
Reeds 70.000 gitaristen zijn je voorgegaan.

Gratis Aanmelden Gitaartabs