• Streaming gitaar liedjes spelen
  • Leer gitaar spelen & gitaarlessen
  • 75.000 leden
Intro:
   F#5	 G#5
e|-----------|
B|-----------|	Come in from final F#5 of Jesus of Suburbia
G|-----------|
D|-4-----6---|
A|-4-----6---|
E|-2-----4---|

Verse:
   C#5     A#5 G#5    F#5 G#5
e|----------------------------|
B|----------------------------|
G|-6---6----------------------|
D|-6---6---8---6------4---6---|
A|-4---3---8---6------4---6---|
E|---------6---4------2---4---|

Chorus:
   A#5   G#5   C#5   F#5   A#5   G#5   F#5
e|-----------------------------------------|
B|------------
De rest van dit nummer alleen voor Gitaartabs leden! Maak gratis Gitaartabs account aan . 
Gitaar Tabs

Download, print en speel de Chord ♪ Green Day - City Of The Damned

Meld je aan en print, download of speel binnen 15 sec mee Chord ♫ Green Day - City Of The Damned.
Reeds 70.000 gitaristen zijn je voorgegaan.

Gratis Aanmelden Gitaartabs

Comments Green Day - City Of The Damned - chords

JouryB

JouryB 2010-06-15

Dit is gewoon een deel uit jesus of suburbia....
Samen met al die andere kleine stukjes...