• Streaming gitaar liedjes spelen
  • Leer gitaar spelen & gitaarlessen
  • 75.000 leden
Intro: 
   G#5                  F#5 C#5  x4
e|-------------------------------|
B|-------------------------------|
G|--------(bass)------------6----|
D|-6--------------------4---6----|
A|-6--------------------4---4----|
E|-4---4-4-4-4-4-4-4----2--------|
 
Main Riff:  
   G#5                  F#5 C#5   
e|-------------------------------| 
B|-------------------------------| 
G|--------------------------6----| 
D|-6-6-6-6-6-6-6-6-6----4---6----| 
A|-6-6-6-6-6-6-6-6-6----4---4----| 
E|-4-4-4-4-4-4-4-4-4----2--------|

Chorus
   C# G# C# G# C#G#  D# G# D# G# D#G#  x2
e|-------------------------------------|
B|-------------------------------------|
G|-6-----6-----6-----8-----8-----8-----|
D|-6--6--6--6--6-6---8--6--8--6--8-6---|
A|-4--6--4--6--4-6---6--6--6--6--6-6---|
E|----4-----4----4------4-----4----4---|

Solo 1:
                                                x2
e|------------------
De rest van dit nummer alleen voor Gitaartabs leden! Maak gratis Gitaartabs account aan . 
Gitaar Tabs

Download, print en speel de Chord ♪ Green Day - Tales Of Another Broken Home

Meld je aan en print, download of speel binnen 15 sec mee Chord ♫ Green Day - Tales Of Another Broken Home.
Reeds 70.000 gitaristen zijn je voorgegaan.

Gratis Aanmelden Gitaartabs