• Streaming gitaar liedjes spelen
  • Leer gitaar spelen & gitaarlessen
  • 75.000 leden
[[Intro]]

|-----------------|-----------------|-----------------|-----------------|
|-----------------|-----------------|-----------------|-----------------|
|-------3-------3-|-----------------|-------3-------3-|-----------------|
|-----5-------3---|---2---3--3/5----|-----5-------3---|---2---3---2p0---|
|---5-------5-----|-3---------------|---5-------5-----|-3-------------3-|
|-3-------6-------|-----------------|-3-------6-------|-----------------|


|-----------------|-----------------|-----------------|-----------------|
|-----------------|-----------------|-----------------|-----------------|
|-------3-------3-|-----------------|-------3-------3-|-----------------|
|-----5-------3---|---2---3---5-----|-----5-------3---|---2--
De rest van dit nummer alleen voor Gitaartabs leden! Maak gratis Gitaartabs account aan . 
Gitaar Tabs

Download, print en speel de Chord ♪ I Am Kloot - Darkstar

Meld je aan en print, download of speel binnen 15 sec mee Chord ♫ I Am Kloot - Darkstar.
Reeds 70.000 gitaristen zijn je voorgegaan.

Gratis Aanmelden Gitaartabs