• Streaming gitaar liedjes spelen
  • Leer gitaar spelen & gitaarlessen
  • 75.000 leden
Pieces of You 

(intro:)

    Dm
E------1p0-1---------1p0-1---------1p0-1---------1p0-1----
B----3-------3----3--------3-----3-------3-----3-------3--
G---------------------------------------------------------
D----------------0---------------------------0------------
A--0---------------------------0--------------------------
E---------------------------------------------------------
    
   G
E--------3-------------3------
B------3---3---------3---3----
G----0-------0-----0-------0--
D-----------------------------
A-----------------------------
E--3-------------3------------

    Dm
E------1p0-1---------1p0-1---------1p0-1---------1p0-1----
B----3-------3-----3-------3-----3-------3-----3-------3--
G---------------------------------------------------------
D--0------------<12>-----------0------------<12>----------
A---------------------------------------------------------
E---------------------------------------------------------

                                                                     
(chord picking:)
(sometimes the fifth note is repeated after the sixth, just play what you feel)            
De rest van dit nummer alleen voor Gitaartabs leden! Maak gratis Gitaartabs account aan . 
Gitaar Tabs

Download, print en speel de Chord ♪ Jewel - Pieces Of You

Meld je aan en print, download of speel binnen 15 sec mee Chord ♫ Jewel - Pieces Of You.
Reeds 70.000 gitaristen zijn je voorgegaan.

Gratis Aanmelden Gitaartabs

Artiesten

Jewel

Song information

Naam: Pieces Of You
Album:
Notatie: Chord (CRD)
Category: Pop
Niveau:

Statistiek

Downloads: 2.842
Commentaren:

Credits

Geplaat door: JanH
Geschreven door: Gitaartabs
Datum: 2006-10-19