• Streaming gitaar liedjes spelen
  • Leer gitaar spelen & gitaarlessen
  • 80.000 leden
C = -x-3-2-0-1-0-
G = -3-5-5-4-3-3-
D = -x-x-0-2-3-2-
A = -x-0-2-2-2-0-
E = -0-2-2-1-0-0-
E7 = -0-2-2—4-3-4-

Jimi Hendrix - Hey Joe

De riffjes zijn standaard interpretaties en kunnen per versie van Hey Joe verschillen.


Intro:   
e |---0---0-----------|----0----------------|-0-----------------------|
B |-3/5-5/3-----0-----|----0----------------|-0-----------7------7----|
G |---------42-0-0---|----1----------------|-1-------7---7—-7---7----|
D |---------------0h2-|--------------5----4-|-2---9---7h9----7h9---9-|
A |-------------------|-------4/5----5----4-|-2---7-------------------|
E |-------------------|-0---------0----0----|-0-----0-----------------|

Riff 1:
e |-----0-0------3-3--|-----2-2-2-0-0-0-------|---0----------------|-0---------------|
B |-----1-1------0-0--|-----3-3-3-2-2-2-------|---0----------------|-0---------------|
G |-----0-0------0-0--|-----2-2-2-2-2-2-------|---1----------—-0---|-1--7---7-7------|
D |-----2-2------0-0--|-0-0-0-0-0-2-2-2-----0-|---2--------0-------|-2—-7h9---7h9-9-|
A |-3-3-3-3------2-2--|-----------0-0-0-3/4---|---2----0h2---2-----|-2---------------|
E |----------3-3-3-3--|-----------------------|-0-0--0-----------0-|-0---------------|

Riff 1:
e |-----0-0------3-3--|-----2----------0-0-0-------|---0----------------|-0---------------|
B |-----1-1------0-0--|-----3----------2-2-2-------|---0----------------|-0---------------|
G |-----0-0------0-0--|-----2----------2-2-2-------|---1----------—-0---|-1--7---7-7------|
D |-----2-2------0-0--|-0-0-0-1h2-2/4--2-2-2-----0-|---2--------0-------|-2—-7h9---7h9-9-|
A |-3-3-3-3------2-2--|----------------0-0-0-3/4---|---2----0h2---2-----|-2---------------|
E |----------3-3-3-3--|----------------------------|-0-0--0-----------0-|-0---------------|

(riff 1)
C    G    D A                         E
  Hey Joe.  Where you goin' with that gun in your hand.
C    G    D A                         E
  Hey Joe.  Where you goin' with that gun in your hand.

C                   G                  D
  I'm goin' down to shoot my old lady,
           A                                     E
you know I caugth her messin' round with another man.
C                   G                  D
  I'm goin' down to shoot my old lady,
           A                               E
you know I caught her messin' round with another man.

(riff 2)
C    G    D A                     E
  Hey Joe.  I heard you shot your woman down, you shot her down now.
C    G    D A                         E
  Hey Joe.  I heard you shot your old lady down, you shot her down in the ground.

C     G                 D     A                 E
  Yes I did, I shot her,  you know I caught her messin' round town.
C     G                 D          A                            E          |E7|
  Yes I did, I shot her,  you know I caught my old lady messin' round town.

Solo:
e |-------12-------------------------|-------12-12-------------------------|
B |-15b------15-12-------------------|-15b----
>> Registreer, speel & download <<
Meld nu aan en speel de rest van Jimi Hendrix - Hey Joe

>> Registreer, speel & download <<
--15-12-----12---------------|
G |-------------12-14r-12----12~-----|----------------14b----14--12/14p12b-|
D |-----------------------14---------|-------------------------------------|
A |----------------------------------|-------------------------------------|
E |----------------------------------|-------------------------------------|

e |-------------------------------------|------------------|
B |-------------------------------------|------15b-----15b-|
G |--------12----12------------12~-----|------------------|
D |--14~------14----------12-14-----14-|------------------|
A |--------------------14----14---------|------------------|
E |------------------0/-----------------|------------------|


e |-12-12-12-----12------------------------|----------12-15r--12--------12--------|
B |-12-15-12-12--12-15----12---------------|-------12----------------15----15-----|
G |----------14b-------14b--------14-12~---|---14b---------------14b----------14b-|
D |--------------------------0-14----------|--------------------------------------|
A |----------------------------------------|--------------------------------------|
E |----------------------------------------|--------------------------------------| 

e |----------------------------|----------------------|
B |----------------------------|----------------------|
G |--12~-----------------------|--12~-----------------|
D |----------14----16--14-16--|--------14-----------|
A |-----------------16---------|--------14-------14-|
E |--------------0-------------|---------------10-----|

(solo)
|C  |G  |D  |A  |E  |E7 |
|C  |G  |D  |A  |E  |E7 |
|C  |G  |D  |A  |E  | % |

Bass riff: 
(de 1e 2 maten worden tijdens het couplet gespeeld)
(onderstaande 4 maten worden op het einde gespeeld)
e |------------------|-----------------|-------------------|------------------------|
B |------------------|-----------------|-----8--8-8--8-8-8-|------------------------|
G |------------------|-----------------|-----7--7-7--7-7-7-|-----9--7---7--7---7----|
D |------------------|-----------------|-----6--6-6--6-6-6-|-----9—-7h9----7h9---9-|
A |-/3---------2-3-4-|-5--------/4-5-6-|-----7--7-7--7-7-7-|-----7------------------|
E |----0-1-2-3-------|---2-3-4-5-------|-0-0---------------|-0-0--------------------|

C    G    D A                   E
  Hey Joe,  where you gonna run to now, where you gonna run to?
C    G    D A                   E
  Hey Joe,  where you gonna run to now, where you gonna go?

C               G          D A       E
  I'm goin' way down south,  way down Mexico way.
C               G        D A               E
I'm goin' way down south,  way down where I can be free,ain't no one gonna find me. 
C          G             D                A                 E
  Ain't no hangman gonna,  he ain't gonna put a rope around me

C    G    D            A           E
  Hey Joe,  you better run on down.  Goodbye everybody.
C    G              D    A      E
  Hey Joe, what’d I say, run on down.


More info