• Streaming gitaar liedjes spelen
  • Leer gitaar spelen & gitaarlessen
  • 75.000 leden
INTRO:
    (Dm)
E ---------------------|
B ---------------------|
G ---2--2--2--2--2--2--|
D --0--0--0--0--0--0---|
A ---------------------|
E ---------------------|

CHORUS:
(Dm)              
There ain't no grave
                 
Can hold my body down
Dm              G
There ain't no grave
    Am            Dm   *FILL (YOU WILL HEAR FAINTLY
Can hold my body down        THIS LITTLE 3 NOTE FILL
                             THROUGHOUT AFTER THE Dm)
*FILL:
E --1-0----------------|
B -------3-------------|
G ---------------------|
D ---------------------|
A ---------------------|
E ---------------------|

VERSE:
Dm
When I hear that trumpet sound
           G                      Dm
I'm gonna rise right out of the ground
           G
Ain't no grave
     Am           Dm
Can hold my body down

VERSE
De rest van dit nummer alleen voor Gitaartabs leden! Maak gratis Gitaartabs account aan . 
Gitaar Tabs

Download, print en speel de Chord ♪ Johnny Cash - Aint No Grave

Meld je aan en print, download of speel binnen 15 sec mee Chord ♫ Johnny Cash - Aint No Grave.
Reeds 70.000 gitaristen zijn je voorgegaan.

Gratis Aanmelden Gitaartabs

Wat vind jij van deze song? Johnny Cash - Aint No Grave


Plaats opmerkingen e.o. suggestie voor Johnny Cash - Aint No Grave