• Streaming gitaar liedjes spelen
  • Leer gitaar spelen & gitaarlessen
  • 75.000 leden
Stille nacht Heilige nacht 
Artiest: kerstmis 
Album: Christmas 
Capo:  
Tuning: E-A-D-G-B-E 
uitgezocht door: o.a. Mula 

--------------------------------------------------------------------------

Hieronder de Protestantse versie, de Katholiekje versie, een 
TAB-versie en helamaal onderaan de geschiedenis van dit lied. 


C      x32010
G7     320001
F      133211
G#dim  x23131   of  xx6767 


Protestantse versie: 

C
Stille nacht, Heilige nacht,
G7           C 
David's zoon lang verwacht.
F		   C
Die miljoenen eens zaligen zal,
F                C
Wordt geboren in Bethlehems stal.
G7	 G#dim      C
Hij, der schepselen heer,
C          G7        C
Hij, der schepselen heer. 


Hulp'loos kind, Heilig kind,
Dat zo trouw zondaars mint.
Ook voor mij hebt G'U rijkdom ontzegd,
Werd G'in stro en in doeken gelegd.
Leer m'U danken daarvoor,
Leer m'U danken daarvoor. 

Stille nacht, Heilige nacht,
Heil en vree wordt gebracht.
Aan een wereld, verloren in schuld,
God's belofte wordt heerlijk vervuld.
Amen, Gode zij d'eer,
Amen, Gode zij d'eer.




Katholieke versie: 

Stille nacht, heilige nacht,
Alles slaapt, sluimer zacht.
Eenzaam waakt het hoogheilige paar,
Lieflijk Kindje met goud in het haar,
Sluimert in hemelse rust
Sluimert in hemelse rust. 
Stille nacht, heilige nacht
Zoon van God, liefde lacht
Vriend'lijk om Uwe God'lijke mond,
Nu ons slaat de reddende stond,
Jezus van Uwe geboort',
Jezus van Uwe geboort'. 

Stille nacht, heilige nacht,
Herders zien 't eerst Uw pracht;
Door der eng'len alleluja
Galmt het luide van verre en na:
Jezus de redder ligt daar,
Jezus de redder ligt daar.


========================================================
========================================================

                                SILENT NIGHT

Words and Music by Franz Gruber
Arranged by Stephen C. Siktberg
Transcribed by Jonnie Tamares  jamwithjonnie@yahoo.com

 Intro
  Q=74
 3/4
  Gtr I
|-------------|-------------|-------------|-------------||
|-------------|-------------|-------------|-------------||
|-----4h5-4---|-----0h2-0---|-----4h5-4---|-----0h2-0---||
|---0-------0-|---0-------0-|---0-------0-|---0-------0-||
|-0-----------|-0-----------|-0-----------|-0-----------||
|-------------|-------------|-------------|-------------||


 Verse 1
|------------------|----------------------|
|-3-(3)-(3)5-3-(3)-|-0-(0)-(0)(0)-(0)-(0)-|
|--------4h5-4-----|--------0h=2---0------|
|----0----------0--|----0--------------0--|
|-0----------------|-0--------------------|
|------------------|----------------------|


|------------------|----------------------|
|-3-(3)-(3)5-3-(3)-|-0-(0)-(0)(0)-(0)-(0)-|
|--------4h5-4-----|--------0h=2---0------|
|----0----------0--|----0--------------0--|
|-0----------------|-0--------------------|
|------------------|----------------------|


|-5-(5)-(5)-(5)-5-(5)-|-2-(2)-(2)-(2)-(2)-(2)-|
|--------7---5--7-----|--------1---0---1------|
|----5-------------5--|----2---------------2--|
|---------------------|-----------------------|
|---------------------|-----------------------|
|-0-------------------|-0---------------------|


|-3-(3)-(3)(3)-3-(3)-|----------------------|
|--------0h=1--0-----|-3-(3)-(3)(3)-(3)-(3)-|
|----0------------0--|--------0h=2---0------|
|--------------------|----0--------------0
De rest van dit nummer alleen voor Gitaartabs leden! Maak gratis Gitaartabs account aan . 
Gitaar Tabs

Download, print en speel de Chord ♪ Kerstliedjes - Stille Nacht Heilige Nacht

Meld je aan en print, download of speel binnen 15 sec mee Chord ♫ Kerstliedjes - Stille Nacht Heilige Nacht.
Reeds 70.000 gitaristen zijn je voorgegaan.

Gratis Aanmelden Gitaartabs

Wat vind jij van deze song? Kerstliedjes - Stille Nacht Heilige Nacht


Plaats opmerkingen e.o. suggestie voor Kerstliedjes - Stille Nacht Heilige Nacht