Torn
(intro:)

Guitar1: F four times 
Guitar2:

E|----8----|----------|----------|---------|
B|---------|----11----|----10----|----8----|
G|---------|----------|----------|---------|
D|---------|----------|----------|---------|
A|---------|----------|----------|---------|
E|---------|----------|----------|---------|

(Verse 1:)

 F                                      Am
  I thought I saw a man brought to life
                                          Bb
  He was warm, he came around like he was dignified
      
  He showed me what it was to cry

F                                       Am
  Well you couldn't be that man I adored
                   
  You don't seem to know 
                               Bb
  Don't seem to care what your heart is for 

  But I don't know him anymore 

(Pre Chorus:)

          Dm
  There's nothing where he used to lie 
C 
  My conversation has run dry 
Am
  That's what's going on 
C                       
  Nothing's fine
        F 
  I'm torn

(guitar2:)

"theres nothing..." "My conversation" "Thats what..."  "Nothing's fine."

E|------------------|----------------|----------------|----------------|
B|--------------10--|-----------8----|---------5------|-----------8----|
G|----------10------|--------9-------|------5---------|--------9-------|
D|------12----
De rest van dit nummer alleen voor Gitaartabs leden! Maak gratis Gitaartabs account aan . 
Gitaar Tabs

Speel de Chord ♪ Natalie Imbruglia - Torn

Meld je aan en speel binnen 15 sec mee met Chord ♫ Natalie Imbruglia - Torn.
Reeds 65.000 gitaristen zijn je voorgegaan.

Gratis Aanmelden Gitaartabs - Basis

Beoordeel deze Gitaartab: Natalie Imbruglia - Torn

Comments Natalie Imbruglia - Torn - chords

Plaats opmerkingen e.o. suggestie voor Natalie Imbruglia - Torn

Meer Natalie Imbruglia songs

Natalie Imbruglia - Torn