Streaming Bladmuziek ProTabs

Correcte Tabs - ProTABS

Live meespelen icm video
Wekelijks nieuwe Top 40 songs
Geschreven door gitaardocenten

Vanaf € 5,95 per maand!
Info ProTabs
Streaming Bladmuziek ProTabs

Online Gitaarles

Voor beginners & gevorderden
Lessen incl. begeleidingsmateriaal
Persoonlijke feedback

Vanaf € 9,95 per maand!
Info Online Gitaarles
Torn
(intro:)

Guitar1: F four times 
Guitar2:

E|----8----|----------|----------|---------|
B|---------|----11----|----10----|----8----|
G|---------|----------|----------|---------|
D|---------|----------|----------|---------|
A|---------|----------|----------|---------|
E|---------|----------|----------|---------|

(Verse 1:)

 F                                      Am
  I thought I saw a man brought to life
                                          Bb
  He was warm, he came around like he was dignified
      
  He showed me what it was to cry

F                                       Am
  Well you couldn't be that man I adored
                   
  You don't seem to know 
                               Bb
  Don't seem to care what your heart is for 

  But I don't know him anymore 

(Pre Chorus:)

          Dm
  There's nothing where he used to lie 
C 
  My conversation has run dry 
Am
  That's what's going on 
C                       
  Nothing's fine
        F 
  I'm torn

(guitar2:)

"theres nothing..." "My conversation" "Thats what..."  "Nothing's fine."

E|------------------|----------------|----------------|----------------|
B|--------------10--|-----------8----|---------5------|-----------8----|
G|----------10------|--------9-------|------5---------|--------9-------|
D|------12----------|------10--------|-----7----------|------10--------|
A|--12--------------|--10------------|--7-------------|--10------------|
E|------------------|----------------|----------------|----------------|

(Chorus:)

F                    C               Dm
 I'm all out of faith, this is how I feel
                   Bb                         F
 I'm cold and I am shamed, lying naked on the floor 
                   C                    Dm
 Illusion never changed, into something real 
                    Bb                            F
 I'm wide awake and I can see, the perfect sky is torn
                 C                   Dm  (C)  Bb
 You're a little late,
...... Helaas, de rest is alleen voor leden /  Members only please subscribe .......
Gitaar Tabs

Speel de Chord van Natalie Imbruglia - Torn

Meld je direct aan, pak je gitaar en speel binnen 15 sec mee - Chord van Natalie Imbruglia - Torn.
Reeds 65.000 gitaristen zijn je voorgegaan.

DIRECT AANMELDEN  

Beoordeel deze tab: Natalie Imbruglia - Torn


Comments: Natalie Imbruglia - Torn - chords

5

Plaats bericht voor Natalie Imbruglia - Torn

Via onderstaande formulier kan je een comment plaatsen bij de chords van Natalie Imbruglia met Torn.