• Streaming gitaar liedjes spelen
  • Leer gitaar spelen & gitaarlessen
  • 75.000 leden
Intro: (plucking Am, C, G, F)
   Am                  C                      G
e|------0---------0----------0-----------0----------------------------------|
B|------1---------1----------1-----------1----------3-----------3-----------|
G|---2----2----2----2-----0-----0-----0-----0-------0-----------0-----------|
D|-----------------------------------------------0-----0-----0-----0--------|
A|-0---------0---------3-----------3----------------------------------------|
E|--------------------------------------------3-----------3-----------------|
    F
e|--------------------------------------------------------------------------|
B|--------1------------1----------------------------------------------------|
G|--------2------------2----------------------------------------------------|
D|-----3-----3------3-----3--x2--speel-F-akkoord langer-2-keer--------------|
A|--3------------3----------------------------------------------------------|
E|--------------------------------------------------------------------------|

Achtergrond deel

e|--3--0-----3--0-----3--0-----------------------------------|
B|--------3--------3--------3---5----------------------------|
G|-----------------------------------------------------------|
D|-----------------------------------------------------------|
A|-----------------------------------------------------------|
E|-----------------------------------------------------------|
pluking gedeelte Am, C, G, F

Am                 C
Lately, I've been, I've been losing sleep
G                              F
Dreaming about the things that we could be
    Am               C
But baby, I've been, I've been praying hard,
G                   
Said, no more counting dollars
F                              F
We'll be counting stars, yeah we'll be counting stars

           Am
I see this life like 
De rest van dit nummer alleen voor Gitaartabs leden! Maak gratis Gitaartabs account aan . 
Gitaar Tabs

Download, print en speel de Chord ♪ One Republic - Counting Stars

Meld je aan en print, download of speel binnen 15 sec mee Chord ♫ One Republic - Counting Stars.
Reeds 70.000 gitaristen zijn je voorgegaan.

Gratis Aanmelden Gitaartabs

Comments One Republic - Counting Stars - chords

snoukgitaar

Snoukgitaar 2017-02-03

Wat is de slag??