• Streaming gitaar liedjes spelen
  • Leer gitaar spelen & gitaarlessen
  • 75.000 leden
(Dmaj7)Stuck inside these four walls,
(G)Sent inside forever,
(Dmaj7)Never seeing no one
(G)Nice again
Like (Dmaj7)you    (Gm)Mama   (Dmaj7)you    (Gm)Mama   (Dmaj7)you.(Gm)

(Am)(D)(Am)(D)(Am)(D)

(Am)If I ever get out of here,
(D)Thought of giving it all away
(Am)To a registered charity.
(D)All I need is a pint a day
If I (Am)ever get out of here.
If I (Am)ever get out of here.

E|--------------------------------------------------------------|
B|--------------------------------------------------------------|
G|--------------------7--7-7--5~--------------------7--7-7--5~--|
D|-----------------5--7--7-7--5~-----------------5--7--7-7--5~--|
A|--------3--5--7-----5--5-5--3~--------3--5--7-----5--5-5--3~--|
E|---3--5--------------------------3--5-------------------------|

E|----------------0--0--0--0---1--1--1--1---0--0--0--0---1--1--1--1---|
B|----------------1--1--1--1---1--1--1-
De rest van dit nummer alleen voor Gitaartabs leden! Maak gratis Gitaartabs account aan . 
Gitaar Tabs

Download, print en speel de Chord ♪ Paul McCartney And Wings - Band On The Run

Meld je aan en print, download of speel binnen 15 sec mee Chord ♫ Paul McCartney And Wings - Band On The Run.
Reeds 70.000 gitaristen zijn je voorgegaan.

Gratis Aanmelden Gitaartabs

Artiesten

Paul McCartney And Wings

Song information

Naam: Band On The Run
Album: Band On The Run
Notatie: Chord (CRD)
Category: Pop
Niveau: 2/10

Statistiek

Downloads: 273
Commentaren:

Credits

Geplaat door: Gerritpook2211
Geschreven door: McCartney
Datum: 2019-06-22