• Streaming gitaar liedjes spelen
  • Leer gitaar spelen & gitaarlessen
  • 75.000 leden
Titel: Du 
Artiest: Peter Maffay 
Album: Du 
Capo:  
Tuning: E-A-D-G-B-E 
uitgezocht door: Peter Stikvoort 

----------------------------------------------------------------

B:      X-2-4-4-4-2
F#:     2-4-4-3-2-2
F#6:    2-4-4-3-4-2
Bsus4:  X-2-4-4-5-2
B6:     X-2-4-4-4-4
Badd9:  X-2-4-4-2-2
F#7:    2-4-2-3-2-2
B7:     X-2-1-2-0-2
E:      0-2-2-1-0-0
D:      X-X-0-2-3-2
A:      X-0-2-2-2-0
G#      4-6-6-5-4-4
C#:     X-4-6-6-6-4
C#m:    X-4-6-6-5-4
C#m/G#: 4-4-6-5-5-4
F#m:    2-4-4-2-2-2
G#7:    4-6-4-5-4-4
C#7:    X-4-6-4-6-4

Intro:

  B    F#   F#6 F# B  Bsus4 B B6 B      B6 B Bsus4 B Badd9 F#   

E|--------|----------|--------4--2------4--2------------------|
B|-----2--|-4--2--4--|--5--4---------4----------5--4---2----2-|
G|---4----|----------|------------------------------------4---|
D|-4------|----------|----------------------------------------|

   F#6 F# B

E|----------|
B|--4--2----|
G|--------4-|
D|----------|

B         F#7            B       
De rest van dit nummer alleen voor Gitaartabs leden! Maak gratis Gitaartabs account aan . 
Gitaar Tabs

Download, print en speel de Chord ♪ Peter Maffay - Du

Meld je aan en print, download of speel binnen 15 sec mee Chord ♫ Peter Maffay - Du.
Reeds 70.000 gitaristen zijn je voorgegaan.

Gratis Aanmelden Gitaartabs

Artiesten

Peter Maffay

Song information

Naam: Du
Album: Du
Notatie: Chord (CRD)
Category: Pop
Niveau: 2/10

Statistiek

Downloads: 39.435
Commentaren:

Credits

Geplaat door: Koning
Geschreven door: Peter Stikvoort
Datum: 2008-09-01

Meer Peter Maffay songs

Peter Maffay - Du