• Streaming gitaar liedjes spelen
  • Leer gitaar spelen & gitaarlessen
  • 75.000 leden
Nog 10 chords te gaan voor deze maand.
Zij maakt het verschil

Gebruikte accoorden:

Bm	X24432
F#m	244222
G       320022
A       X02220
D       XX0232
D6      XX0222
Em7     022033
Em7/F#  200033


Opmerkingen:

15-09-'01

De nieuwe poema's single. Geweldig nummer. Niet zo moelijk, leuk om te spelen!


[INTRO]

4/4                                                
|------------------------|-------------------3--2-|
|----------3--2----------|-------3/-5--5\-3-------|
|-------4--------4-------|-------2/-4--4\-2-------|
|----4-------------------|------------------------|
|-2----------------------|------------------------|
|----------------------2-|-3----------------------|
                                                   

                                                   
|------------------------|------------------------|
|----------3--2----------|-------3/-5\-3----------|
|-------4--------4-------|-------2/-4\-2----------|
|----4-------------------|------------------------|
|-2----------------------|------------------------|
|----------------------2-|-3----------------------|


   Bm                         F#m            G 
Ze is geen medicijn tegen het tikken van de klok
     A          D          G           A
Geen hoop, geen gids, geen haven in de nacht
     Bm                           F#m              G
Geen bron in de woestijn als je kapot gaat van de dorst
        Em             D              A
Niet de glimlach op je allerslechtste grap


   Bm                            F#m       G
Z
De rest van dit nummer alleen voor Gitaartabs leden! Maak gratis Gitaartabs account aan . 
Gitaar Tabs

Download, print en speel de Chord ♪ Poemas De - Zij Maakt Het Verschil

Meld je aan en print, download of speel binnen 15 sec mee Chord ♫ Poemas De - Zij Maakt Het Verschil.
Reeds 70.000 gitaristen zijn je voorgegaan.

Gratis Aanmelden Gitaartabs

Wat vind jij van deze song? Poemas De - Zij Maakt Het Verschil

Comments Poemas De - Zij Maakt Het Verschil - chords

Plaats opmerkingen e.o. suggestie voor Poemas De - Zij Maakt Het Verschil