• Streaming gitaar liedjes spelen
  • Leer gitaar spelen & gitaarlessen
  • 75.000 leden
(copy in courier new)

'39(livekillers) - Queen

Intro:
     G       D   Em           C    G        D    C       G/
e|---3-------2-/-(0)----------0/---3--------2/---0-------3/
B|---3-------3-/-(0)----------1/---3-3p0----3/---1-------3/
G|---0-------2-/-(0)----------0/---0----2p0-2/---0-------0/
D|---0-----0(0)/--2-2h4p2p0---2/---0--------0/---2-0h2---0/
A|-2-2-2h3-----/--2---------3-3/---2---------/-3(3)------2/
E|-------------/0--------------/-3(3)--------/---------3-3/
     G       D    Em          C Em/C    Dsus2    G
e|---3-------2-/-(0)---0------0/-0---0---0-------3/
B|---3-------3-/-(0)---0------1/-0---0---3-------3/
G|---0-------2-/-(0)---0------0/-0---0---2-0-----0/
D|---0-----0(0)/--2-2h4p2p0---2/-2---2---0---4---0/
A|-2-2-2h3-----/--2---------3-3/---3---3---------2/
E|-------------/0--------------/---------------3-3/

       D                        Em           
In the   year of '39, assembled    here the volunteers
        C           G            D      Dsus4 - D - Dsus2 - D    
In the    days when   lands were   few 
         Em             Em7             C        
Here the    ship sailed    out into the    Blue and sunny morn
Dsus4          D             G          
      Sweetest    sight ever    seen.
    D                             C7b9         
And    night followed day, and the     story tellers say
         Em            Em/F#       Em/G       Am      c - b - Am    
That the    score brave      souls       in -    side 
   G                               D     
For   many a lonely day, sailed a -    cross the milky seas
C/              Em/      C/       D/        C/       G/        D 
    Never looked    back,   never    feared,   never    cried. 

          
De rest van dit nummer alleen voor Gitaartabs leden! Maak gratis Gitaartabs account aan . 
Gitaar Tabs

Download, print en speel de Chord ♪ Queen - '39

Meld je aan en print, download of speel binnen 15 sec mee Chord ♫ Queen - '39.
Reeds 70.000 gitaristen zijn je voorgegaan.

Gratis Aanmelden Gitaartabs