• Streaming gitaar liedjes spelen
  • Leer gitaar spelen & gitaarlessen
  • 80.000 leden
G|----------------------------|
D|----------------------------|
A|--5-x-5-x-5---4-4-----------|  X3
E|----------------------------|

G|----------------------------|
D|----------------------------|
>> Registreer, speel & download <<
Meld nu aan en speel de rest van Rihanna - Don't Stop The Music

>> Registreer, speel & download <<
A|--5-x-5-x-5---4-------------| 
E|-----------------0----------|

G|----------------------------|
D|----------------------------|
A|----------------------------| X4
E|--2-x-2-x-2---0-0-----------|

More info

Comments Rihanna - Don't Stop The Music - chords

cheyenne225

Cheyenne225 2010-01-28

heb je deze ook in akkorden