• Streaming gitaar liedjes spelen
  • Leer gitaar spelen & gitaarlessen
  • 75.000 leden
KALVERLIEFDE 

INTRO
     D              Daddg      D               Daddg           
 e |-----2--------|---3-------|----2---------|--3-------|
 b |--------3-----|----3---3--|--------3-----|---3---3--|
 g |------------2-|-----2-----|------------2-|----2-----|
 D |--0-----------|-0---------|0-------------|-0--------|
 A |--------------|----------0|--------------|--------0-|
 E |--------------|-----------|--------------|----------|
 
MELODIE:
     D              Daddg      D               Daddg     Aaddd A       
 e |-----2--------|---3-------|----2---------|--3-------|-------------|
 b |--------3-----|----3---3--|--------3-----|---3---3--|---3--2----2-|
 g |------------2-|-----2-----|------------2-|----2---2-|---2--2--2---|
 D |--0-----------|-0---------|0-------------|-0--------|-------------|
 A |--------------|----------0|--------------|----------|0------------|
 E |--------------|-----------|--------------|----------|-------------|
     ja  kalverliefde was het  wel, misschien zelfs ...  spel dat werd ge-


     C            C7  C       A           A         D           Daddg
 e |-----0------|-0---0---0-|---0-------|-0-------|----2-------|-3----|
 b |--------1---|-3---1---1-|------2----|--2---2--|-------3----|--3---|
 g |---------0--|-0---0---0-|---------2-|---2---2-|----------2-|---2--|
 D |------------|-----------|-----------|---------|-0----------|0-----|
 A |--3-------3-|---3---3---|-0---------|0--------|------
De rest van dit nummer alleen voor Gitaartabs leden! Maak gratis Gitaartabs account aan . 
Gitaar Tabs

Download, print en speel de Chord ♪ Robert Long - Kalverliefde

Meld je aan en print, download of speel binnen 15 sec mee Chord ♫ Robert Long - Kalverliefde.
Reeds 70.000 gitaristen zijn je voorgegaan.

Gratis Aanmelden Gitaartabs

Comments Robert Long - Kalverliefde - chords

darm87

Darm87 2012-04-23

waarom heben ze dat liedje nou niet met ge wone acorde neer ge zet