• Streaming gitaar liedjes spelen
  • Leer gitaar spelen & gitaarlessen
  • 80.000 leden
VENUS 

 
Intro: 

|B7sus4| |Em A|Em A| 2x
 
  Em           A        Em      A
A goddess on a mountain top
 Em            A        Em      A
burning like a silver flame,
  Em         A         Em    A
Summit of beauty and love,
   Em             A      Em  (single notes:  E G A B B A G)
and Venus was her name.
      Am     D  Am       D         Em      A  Em  A
She's got it,     yeah baby, she's got it.
 C7             B7              Em          A  Em  A
I'm your Venus, I'm your fire at your desire.

solo:

|Em A| Em A|
|Em A| Em A|
|Em A| Em A|


Her weapon's are her crystal eyes
making every man mad.
Black as the dark night she was,
got what no one else had.
She's got it, yeah baby, she's got it.
I'm your Venus, I'm your fire at your desire.
Well, I'm your Venus, I'm your fire at your desire.
  
|A/B A/B |A/B A/B| 

verse 'Ah'
chorus

|A/B A/B |A/B A/B| 

(repeat intro)



SOLO

--/-15--14--12------------------------------------------- 2 times
--/15--14--12-
>> Registreer, speel & download <<
Meld nu aan en speel de rest van Shocking Blue - Venus

>> Registreer, speel & download <<
-------12----------------------------------
----------------14------14-12----------------------------
-------------------------------14--------12---14---------
-------------------------------------14------------------
---------------------------------------------------------


-------------------------------------------------------------
-------------------------------------------------------------
-------------11/12--12-11------------------11/12---12-11-----
-----12--14---------------14-------12--14-----------------14-
-14----------------------------14----------------------------
-------------------------------------------------------------


----------------------------------------------------------
----------------------------------------------------------
----------------------------------------------------------
-----12--14------12--14--12-------------------------------
-14----------14--------------14--12----------5--7--7------
-------------------------------------12---7---------------

More info

Comments Shocking Blue - Venus - chords

Lindha

Lindha 2010-12-10

geweldig nummer, heel goed te spelen :)


rockgitaar

Rockgitaar 2009-06-13