• Streaming gitaar liedjes spelen
  • Leer gitaar spelen & gitaarlessen
  • 75.000 leden
Als Er In Een Stuk geen Akkoorden Staan Zijn Die Hetzelfde Als in Een Eerder
Stuk Je Hoort Vanzelf Welk Akkoorden Schema Er Bij De Niet Geakkoneerde Stukken Moeten....Have Fun...Dre

C = C = -X-3-2-0-1-0-
G7 = G Zeven = -3-2-0-0-0-1-
Am = A Mineur = -X-0-2-1-1-0-
Dm = D Mineur = -X-X-0-2-3-1-
Gsus4 = G sus Vier = -3-2-0-0-1-3-
G = G = -3-2-0-0-0-3-

--- - Fade out
/   - Slide up

Maat: 3/4

Sinterklaas - Hoor de wind waait door de bomen

Couplet:
      “C”                     “G7”        “C”
e|-----0--------0-3---0------0-1-------------------------|
B|-------1----1------------3-------3---0-0-1-------------|
G|-0-0------0-------0---0--------0---0-------0---0-------|
D|---------------------------------------------2---------|
A|-----3----------3------------------------3-------------|
E|-----------------------------3-------------------------|
      “C”                      “G7”        “Am”
e|-----0----------0-3---0-----0-1-----/5-3-1-0---------0-|
B|---------1----1-----------3-----0-----------1---1-3----|
G|-0-0---0----0-------0---0---------0-----------2--------|
D|----------------------------------------------
De rest van dit nummer alleen voor Gitaartabs leden! Maak gratis Gitaartabs account aan . 
Gitaar Tabs

Download, print en speel de Chord ♪ Sinterklaas - Hoor De Wind Waait Door De Bomen

Meld je aan en print, download of speel binnen 15 sec mee Chord ♫ Sinterklaas - Hoor De Wind Waait Door De Bomen.
Reeds 70.000 gitaristen zijn je voorgegaan.

Gratis Aanmelden Gitaartabs

Wat vind jij van deze song? Sinterklaas - Hoor De Wind Waait Door De Bomen


Comments Sinterklaas - Hoor De Wind Waait Door De Bomen - chords

holve

Holve 2013-11-13

Leuk! Alleen zou je bij het stukje" ...daar waait de wind" omlaag moeten gaan. Het past wel bij "nu hij het weer zo lelijk vindt" (regel 4). " Hier in huis daar waait de wind" (regel 2) zou volgens mij dit moeten zijn: g2-bo-b1-g2-d2-d4-go groet, esther


Plaats opmerkingen e.o. suggestie voor Sinterklaas - Hoor De Wind Waait Door De Bomen