• Streaming gitaar liedjes spelen
  • Leer gitaar spelen & gitaarlessen
  • 80.000 leden
Gebruikte akkoorden:

A:     002220
E6:    022120
Dsus2: xx0230

A              E6
We'll do it all

          Dsus2
Everything

          A
On our own

A            E6
We don't need

        Dsus2
Anything

         A
Or anyone


A
If I lay here

          E6
If I just lay here

              Dsus2                             A
Would you lie with me and just forget the world?

I don't quite know
How to say
How I feel

Those three words
Are said too much
They're not enough

If I lay here
If I just lay here
Would you lie with me and just forget the world?

Forget what we're told
Bef
>> Registreer, speel & download <<
Meld nu aan en speel de rest van Snow Patrol - Chasing Cars

>> Registreer, speel & download <<
ore we get too old
Show me a garden that's bursting into life

Let's waste time
Chasing cars
Around our heads

I need your grace
To remind me
To find my own

If I lay here
If I just lay here
Would you lie with me and just forget the world?

Forget what we're told
Before we get too old
Show me a garden that's bursting into life

All that I am
All that I ever was
Is here in your perfect eyes, they're all I can see

I don't know where
Confused about how as well
Just know that these things will never change for us at all

If I lay here
If I just lay here
Would you lie with me and just forget the world?

More info

Comments Snow Patrol - Chasing Cars - chords

darm87

Darm87 2011-08-15

esmee94, zo is hij niet goed.

e|------------------------------------------------------------------|
B|------------------------------------------------------------------|
G|--9-9-9-9-9-9-9-9-9-9-9-9-9-9-9-9-9-9-9-9-9-9-9-9-9-9-9-9-9-9-9-9-|
D|-7-7-7-7-7-7-7-7-7-7-7-7-7-7-7-7-6-6-6-6-6-6-6-6-0-0-0-0-0-0-0-0--|
A|------------------------------------------------------------------|
E|------------------------------------------------------------------|

zoiets dacht ik


nadinejj

Nadinejj 2010-05-15

tokkel je dat? Esmee?? ik snap die notatie niet.... als iemand dat zou kunnen uitleggen... GRAAG !! =)


Esmee94

Esmee94 2009-01-18

is alleen de intro, en volgensmij ook een stukje na het refrein (weet ik niet zeker)


mautjuhh

Mautjuhh 2008-10-04

Mhh ik vind persoonlijk het meppen in de lied beter erby passen, maar jou versie is ook goed. Beiden dus te doen Grijns


mautjuhh

Mautjuhh 2008-10-04

Of is dat alleen de intro? Tong


mautjuhh

Mautjuhh 2008-09-06

nou geweldig ben blij ermee!


Esmee94

Esmee94 2008-09-05

ikzelf speel het zo:

E---------------------------------------------------------------------------
B---------------------------------------------------------------------------
G---2--2--2--2--2--2--2--2--1--1--1--1--1--1--1--1--2--2--2--2--2--2--2--2--
D-2--2--2--2--2--2--2--2--2--2--2--2--2--2--2--2--0--0--0--0--0--0--0--0----
A---------------------------------------------------------------------------
E---------------------------------------------------------------------------

en dat dan de hele tijd herhalen Lachen