• Streaming gitaar liedjes spelen
  • Leer gitaar spelen & gitaarlessen
  • 80.000 leden
Intro: (eigenlijk een piano ;-)
    ||: Am7  /  G  /   |  Em7  /  F  / :|| (2x)

Intro, manier 1 : Slaggitaar
           XII                     IX 
           Am7           Am7       G        G        G

    ||     1     e     2     e     3     e     4     e     |
    ||     u  v  u  v  u  v  u  v  u  v  u  v  u  v  u  v  |
 e  ||----12=12-----------12-------------------------------|
 B  ||-:--12h13-----------13-------12-------12-------12----|
 G  ||----12h12-----------12-------12-------12-------12----|
 D  ||-:--12=14-----------14--------9--------9--------9----|
 A  ||----12=12-----------12-------10-------10-------10----|
 E  ||-----------------------------------------------------|
              \-(1)                          \-(2)

          VII                     VII
          Em7           Em7       F           F

     |    1     e     2     e     3     e     4     e      ||
     |    u  v  u  v  u  v  u  v  u  v  u  v  u  v  u  v   ||
 e  -|----7==7-----------7---------------------------------||
 B  -|----7==8-----------8--------9--------9--------9----:-||
 G  -|----7==7-----------7--------9--------9--------9------||
 D  -|----7==9-----------9--------7--------7--------7----:-||
 A  -|----7==7-----------7--------8--------8--------8------||
 E  -|-----------------------------------------------------||
             \-(1)                         \-(2)

Intro, manier 2 : Tokkel, tokkel
                        XII       IX
                        Am7        G   

    ||     1     e     2     e     3     e     4     e     |
    ||     u  v  u  v  u  v  u  v  u  v  u  v  u  v  u  v  |
 e  ||-----------------------------------------------------|
 B  ||-:-----------------13--------------12----------------|
 G  ||-------------------12-------------------12-----------|
 D  ||-:--------12h14======--------------------------9-----|
 A  ||----12===============--------10----------------------|
 E  ||-----------------------------------------------------|

                        VI        VII
                        Em7       F           

     |    1     e     2     e     3     e     4     e      ||
     |    u  v  u  v  u  v  u  v  u  v  u  v  u  v  u  v   ||
 e  -|-----------------------------------------------------||
 B  -|-------------------8--------------10---------------:-||
 G  -|-------------------7--------------------10-----------||
 D  -|---------7h9========--------------------------7----
>> Registreer, speel & download <<
Meld nu aan en speel de rest van Van Dik Hout - Laat Het Los

>> Registreer, speel & download <<
:-||
 A  -|----7===============--------8------------------------||
 E  -|-----------------------------------------------------||

(1) sla niet aan, maar "hamer" m7-akkoord
(2) niet noodzakelijk
(3) yep, het is anders dan normaal
=== laat vinger staan
[ ] duurt hele maat
{ } duurt halve maat

Akkoorden:
         VIII  V    VII   VII   IX    XII
         C     Am   Em7   F     G     Am7
 e  -|----8-----5---(7)--------------(12)--|
 B  -|----8-----5----8----10----12----13---|
 G  -|----9-----6----7----10----12----12---|
 D  -|---10-----7----9-----7-----9----14---|
 A  -|---10-----7----7-----8----10----12---|
 E  -|----8-----5--------------------------|
                           \(3)  \(3)

(1) sla niet aan, maar "hamer" m7-akkoord
(2) niet noodzakelijk
(3) yep, het is anders dan normaal
=== laat vinger staan
[ ] duurt hele maat
{ } duurt halve maat

[C]soms doet het pijn tot op het [Am]bot,
dat ik niet weet waar je [Em7]bent,
dat ik {F}niet weet {F/G}of je [C]bent,
voor gister op de [Am]vlucht
door vandaag teneer[Em7]gedrukt
in {F}morgen ge{F/G}van{F}gen
 

{F}is dit wat je [G]bedoelde toen je [F]zei
alles draait al[G]leen om jou en [F]mij
is dit wat je be[G]doelde toen je {Am7}zei...

[herhaal riff van intro]

[C]je ging de wegen ver van [Am]hier
ik de wegen in mijn [Em7]hoofd
{F}ze komen niet {G}samen
[C]want de wereld om ons [Am]heen
voegt zich niet naar onze [Em7]wil
{F}we mogen niet {G}vragen

[F]is dit wat je [G]bedoelde toen je [F]zei
alles draait al[G]leen om jou en [F]mij
is dit wat je be[G]doelde toen je [Am7]zei...

[C]vraaaaaaaa[Am]ag, niet om een terugkeer
laat het {F}gaan laat het {G}vallen laat het [Am7]los
[C]vraaaaaaaa[Am]ag, niet om een terugkeer
laat het {F}gaan laat het {G}vallen laat het [Am7]los
laat het {F}gaan laat het {G}vallen laat het [Am7]los

[herhaal riff van intro]

[C]nee, ik wil je nooit meer [Am]zien
want als jij straks voor me [Em7]staat
{F}zijn we twee {F/G}vreemden
[C]maar als het waar is wat men [Am]zegt
dat de diepste drang ons [Em]leidt
{F}dan zal ik {F/G}komen

[F]is dat wat je [G]bedoelde toen je [F]zei
alles draait [G]alleen om jou en [F]mij
is dat wat je [G]bedoelde toen je [Am7]zei...

[C]vraaaaaaaa[Am]ag, niet om een terugkeer
laat het {F}gaan laat het {G}vallen laat het [Am7]los
[C]vraaaaaaaa[Am]ag, niet om een terugkeer
laat het {F}gaan laat het {G}vallen laat het [Am7]los (3x)

[herhaal riff van intro]

einde:  G C

More info