• Streaming gitaar liedjes spelen
  • Leer gitaar spelen & gitaarlessen
  • 80.000 leden
Kevin Bruin

Yellowcard - Empty apartment

Verse 1:
            Am
Call me out
                C
You stayed inside
               G
One you love
              D
Is where you hide
              Am            C
Shot me down, as I flew by
                   G
Crash and burn
           D                             F                    Fm
I think somethimes you forget where the heart is
           Am                  C
Answer now, to these questions
             G               D
Let her go, learn a lesson
           Am                  C
Its not me, you're not listening now
               G                         D
Can't you see somethings missing
        F                       Fm
You forget where the heart is

Chorus:
                   C                 C*      
Take you away from that empty apartment 
        Am                F
You stay and i forget where the heart is
        C             C*                             Am           F    
Someday if ever you' love me you'd say it' s okay

Solo:

e-----------------------------------------------------------------------------------------|
B----------------------------------------------------------------------------------------|
G-----------------------------------------------------------------------------------------|
D--12-10-10-12---12-10-12-10---10-12-14---14-12-14-21---12-10|
A---------------------------------------12-------------------------------------------|
E---------------------------------------------------------------------------------------|

e------------------------------------------------------------------------------------|
B-------------------------------------------------------------------------------------|
G------12-
>> Registreer, speel & download <<
Meld nu aan en speel de rest van Yellowcard - Empty Apartment

>> Registreer, speel & download <<
-----------------------------------------------------------------------|
D--12b-----12-10-12--10--------10-10-10-9-------------------------------|
A--------------------------------10/12---------------10-10/12------------------|
E---------------------------------------------------------------------------------------|

Verse 2:
              Am                 C
Waking up, from this nightmare
               G                  D
How's your life, what's it like there
       Am                  C  
Is it al what you want it to be
            G                   D
Does it hurt when you think about me
               F               Fm
And how broken my heart is

(Chorus:)

Bridge:
       C                             C*
Its okay to be angry and never let go
      Am                         F   
It only gets harder the more that you know
C                                  C* 
When you get lonely if no one's around
       Am                                          F       
You know  that ill catch you when you're falling down
C                                 C* 
We came together but you left allone
           Am                               F
And i know how it feels to walk out on your own
C                                C*
Maybe someday I will see you again
                 Am                                  F    
And you'll look me in my eyes and call me your friend

C, C*, Am, F

C, C*, Am, F

(Chorus:)

Outro:
     C     C*   Am   F  
It's okay
     C     C*   Am   F
It's okay
 

Am C  G  D  F  Fm  C*
e-0-|-0-|-3-|-3-|-1-|-1-|-0-|
B-1-|-1-|-3-|-2-|-1-|-1-|-1-|
G-2-|-0-|-0-|-3-|-2-|-1-|-0-|
D-2-|-2-|-0-|-0-|-3-|-3-|-0-|
A-0-|-3-|-2-|-0-|-0-|-3-|-3-|
E-0-|-0-|-3-|-0-|-0-|-1-|-0-|

More info

Comments Yellowcard - Empty Apartment - chords

Wouter van Eijk

Wouter van Eijk 2008-11-08

thnx man


abnormaalnormaal

Abnormaalnormaal 2008-06-30

Ik ben een beginneling op de gitaar en ontdekte dat ik deze akkoorden dus allemaal kan. Nu wil ik weten of er voor dit liedje een vast slagritme is. Het is namelijk best moeilijk om het rimte te vinden als je het liedje hoord Knipoog


Meer Yellowcard songs

Yellowcard - Empty Apartment