• Streaming gitaar liedjes spelen
  • Leer gitaar spelen & gitaarlessen
  • 80.000 leden

Gitaarles: Toonladder voor je eigen solo

hallo! Als je je eigen solo's wilt spelen moet je eerst deze toonladder leren: (er zijn natuurlijk meer toonladders voor solo's maar deze is wel de makkerlijkste)

e----------------------------------5--8-----
b----------------------------5--8-----------
g----------------------5--7-----------------
d-----------------5--7----------------------
a-----------5--7----------------------------
e-----5--8----------------------------------

Als je deze kan dan moet je proberen hem achteruit te spelen. (van hoog naar laag)

e-----8--5-----------------------------------
b-----------8--5-----------------------------
g-----------------7--5-----------------------
d-----------------------7--5-----------------
a-----------------------------7--5-----------
e-----------------------------------8--5-----

En dan achter elkaar. Zo kan je je eigen solo's maken door die noten te gebruiken en dan kan je ook nog een paar bends en/of slides maken. Maar je kan het natuurlijk de zelfde techniek gebruiken bij andere frets bijv. dat je het hoger speelt zoals dit:

e----------------------------------------9--12-----
b---------------------------------9--12------------
g--------------------------9--11-------------------
d-------------------9--11--------------------------
a------------9--11---------------------------------
e-----9--12----------------------------------------

Zo kan je op verschillende nummers soleren door de juiste hoogte (fret) te zoeken Ik hoop dat jullie er wat aan hebben! Kommentaar is welkom! Groetjes sonny ;D Probeer alle lessen voor slechts 1 euro! !

Gitaarles vragen, suggesties en opmerkingen

sonnytjuh

Sonnytjuh 2009-05-19 18:05:21 / Reply

ja dat had ik later pas veranderd


debeste1995

Debeste1995 2009-05-07 13:05:33 / Reply

er staat toch al een 11 ?? Ik weet het niet


Micheltje

Micheltje 2009-03-22 13:03:18 / Reply

Best goed,
probeer ook wat andere oefeningen te geven,
bijv:

d-----------------------------------5---------
a-----------5-----5--7----5--7-----------
e-----5--8-----8----------------------------

enz. dit soort bijv om je snelheid te verhogen Knipoog


sonnytjuh

Sonnytjuh 2009-03-20 16:03:20 / Reply

LET OP

e----------------------------------------9--12-----
b---------------------------------9--12------------
g--------------------------9--11-------------------
d-------------------9--11--------------------------
a------------9--12---------------------------------
e-----9--12----------------------------------------

Sorry bij deze moet deze 12 een 11 zijn